Fórum Cifra Club - maior fórum de m&uacite;sica do Brasil

me passem as escalas de dó ré mi fá sol lá si por favor

Autor Mensagem
tuca
Veterano
# fev/05


me passem as escalas de dó ré mi fá sol lá si por favor

dhelly
Veterano
# fev/05
· votar


Vc podia ser mais especifico?

Harry Virtuoso
Veterano
# fev/05
· votar


tenta essa página:
http://forum.cifraclub.com.br/forum/3/44660/

Doctor Robert
Veterano
# fev/05
· votar


kra vai fazendo assim

TOM + TOM + SEMI TOM + TOM + TOM + TOM +SEMI TOM

Essa é a fórmula, mas vc antes precisa saber o que é Tom e Semi-tom.

Doctor Robert
Veterano
# fev/05 · Editado por: Doctor Robert
· votar


Vou te passar a escala maior (ou modo jonio) de C, mas fica melhor se vc mesmo construir ela...

Começando da 5ª corda:

<pre>
e--------------------------5-7-8--------------------------
B--------------------5-6-8--------------------------------
G--------------4-5-7--------------------------------------
D--------3-5-7--------------------------------------------
A--3-5-7--------------------------------------------------
E------------------------------------------------------
</pre>


Começando da 6ª corda

<pre>
e-------------------------------------------10-12-13---------
B----------------------------------10-12-13------------------
G--------------------------9-10-12--------------------------
D------------------9-10-12----------------------------------
A----------8-10-12------------------------------------------
E--8-10-12--------------------------------------------------
</pre>

Eu não to com a guita aqui por isso alguma coisa pode tar errado entaum corrijam...

Bozenildo
Veterano
# fev/05
· votar


ou galera?
mas tem q ser essa ordem tom tom semi-tom?
ou isso é variável?

Drinho
Veterano
# fev/05
· votar


acho que variavel cara
hehehehe

naum sei escalas maiores =(

The Blue Special Guitar
Veterano
# fev/05
· votar


Bozenildo
É assim:

Por exemplo, a escala maior natural (Jônio) de Dó é:

DÓ RÉ MI FÁ SOL LÁ SI DÓ

Aí, os intervalos:

DÓ - 1 tom - RÉ - 1 tom - MI - MEIO TOM - FÁ - 1 TOM - SOL - 1 TOM - LÁ - 1 tom - SI - MEIO TOM - DÓ

Enviar sua resposta para este assunto
        Tablatura   
 

Tópicos relacionados a me passem as escalas de dó ré mi fá sol lá si por favor

286.420 tópicos 7.481.591 posts
Fórum Cifra Club © 2001-2014 Studio Sol Comunicação Digital