Fórum Cifra Club - maior fórum de m&uacite;sica do Brasil

Q pentatonica devo usar ???

Autor Mensagem
Jonny
Veterano
# mai/03


q pentatonica devo usar num blues com essa progressao: E7 Bb7 F7?????


valeu

spy2k
Veterano
# mai/03
· votar


tipow.. usa a pentatônica.. do tom.. E .. vc pode usar a pentatônica.. de E maior quanto a pentatônica de Em .. é simples

Max
Veterano
# mai/03
· votar


spy2k
nossa acho q nem fica bom..acho legal usar a penta de G...

Errol
Veterano
# mai/03
· votar


Pentatônica 1, Inicia em DÓ:


|------------------------------8-10-|
|-------------------------8-10------|
|-------------------7-8-9-----------|
|--------------7-10-----------------|
|---------7-10----------------------|
|-8-10-11---------------------------|

|-----------------------------------------DÓ-RÉ-|
|----------------------------------SOL-LÁ-------|
|------------------------RÉ-RÉ#-MI--------------|
|------------------LÁ-DÓ------------------------|
|-----------MI-SOL------------------------------|
|-DÓ-RÉ-RÉ#-------------------------------------|

|---------------------------------1-RÉ-|
|----------------------------5-LÁ------|
|--------------------RÉ-BN-3-----------|
|---------------LÁ-1-------------------|
|---------3-SOL------------------------|
|-1-RÉ-BN------------------------------|

Pentatônica 2, inicia em RÉ:

|------------------------------------10-11-12-|
|------------------------------10-13----------|
|-------------------------9-12----------------|
|----------------10-12-13---------------------|
|----------10-12------------------------------|
|-10-11-12------------------------------------|

|-----------------------------------------RÉ-RÉ#-MI-|
|-----------------------------------LÁ-DÓ-----------|
|----------------------------MI-SOL-----------------|
|------------------DÓ-RÉ-RÉ#------------------------|
|-----------SOL-LÁ----------------------------------|
|-RÉ-RÉ#-MI-----------------------------------------|

|-------------------------------RÉ-BN-3-|
|--------------------------LÁ-1---------|
|----------------------3-5--------------|
|--------------1-RÉ-BN------------------|
|---------5-LÁ--------------------------|
|-RÉ-BN-3-------------------------------|

Pentatônica 3, inicia em MI:

|-------------------------------------12-15-|
|----------------------------13-15-16-------|
|----------------------12-14----------------|
|-------------12-13-14----------------------|
|-------12-15-------------------------------|
|-12-15-------------------------------------|

|-----------------------------------------MI-SOL-|
|-------------------------------DÓ-RÉ-RÉ#--------|
|------------------------SOL-LÁ------------------|
|--------------RÉ-RÉ#-MI-------------------------|
|--------LÁ-DÓ-----------------------------------|
|-MI-SOL-----------------------------------------|

|-------------------------------3-5-|
|-----------------------1-RÉ-BN-----|
|------------------5-LÁ-------------|
|----------RÉ-BN-3------------------|
|-----LÁ-1--------------------------|
|-3-5-------------------------------|

Pentatônica 5, inicia em SOL:

|-------------------------3-5-|
|-------------------3-4-5-----|
|---------------2-5-----------|
|-----------2-5---------------|
|-----3-5-6-------------------|
|-3-5-------------------------|

|-----------------------------------------SOL-LÁ-|
|-------------------------------RÉ-RÉ#-MI--------|
|-------------------------LÁ-DÓ------------------|
|------------------MI-SOL------------------------|
|--------DÓ-RÉ-RÉ#-------------------------------|
|-SOL-LÁ-----------------------------------------|

|-------------------------------5-LÁ-|
|-----------------------RÉ-BN-3------|
|------------------LÁ-1--------------|
|--------------3-5-------------------|
|------1-RÉ-BN-----------------------|
|-5-LÁ-------------------------------|

Pentatônica 6, inicia em LÁ:

|-------------------------5-8-|
|---------------------5-8-----|
|---------------5-7-8---------|
|-----------5-7---------------|
|-----5-6-7-------------------|
|-5-8-------------------------|

|-----------------------------------------LA-DÓ-|
|----------------------------------MI-SOL-------|
|------------------------DÓ-RÉ-RÉ#--------------|
|-----------------SOL-LA------------------------|
|-------RÉ-RÉ#-MI-------------------------------|
|-LÁ-DÓ-----------------------------------------|

|-------------------------------LÁ-1-|
|---------------------------3-5------|
|-------------------1-RÉ-BN----------|
|--------------5-LÁ------------------|
|------RÉ-BN-3-----------------------|
|-LÁ-1-------------------------------|


Errol
Veterano
# mai/03
· votar


Bom, é o seguinte, a primeira escala mostra a pentatônica, a segunda mostra qual nota você está tocando e a terceira mostra que nota você está tocando de acordo com a escala de dó, 1 = tônica , 3 = terça , 5 = quinta e BN = blue note

Agora vc dá uma olhada em qual se adequada melhor pra você e boa sorte.

Digao
Veterano
# mai/03
· votar


Se a progressao fosse essa... Bb7 Eb7 F7... vc teria poderia fazer em cima da penta menor de Bb...
Escute red house do jimmy hendrix tem essa base tb... dai pode te dar uma luz...

yvo
Veterano
# mai/03
· votar


Max ms a pentatonica de G eh relative de Em...

Enviar sua resposta para este assunto
        Tablatura   
Responder tópico na versão original
 

Tópicos relacionados a Q pentatonica devo usar ???

291.290 tópicos 7.598.573 posts
Fórum Cifra Club © 2001-2014 Studio Sol Comunicação Digital