Fórum Cifra Club - maior fórum de m&uacite;sica do Brasil

musiquinha do pica-pau

Autor Mensagem
new guy
Veterano
# nov/04


Alguém tem a tab da musiquinha do pica-pau ??

LeandroP
Moderador
# nov/04 · Editado por: LeandroP
· votar



e------------------------------------------------------
B-----------12-------------12------12------------------
G--------------13-------------13------12/13------------
D-------14--------------14-----------------------------
A----14--------------14--------------------------------
E-12--------------12-----------------------------------

.

e------------------------------------------------------
B---12-12---------12------------------17\--------------
G----------13/14-----14-13-----------------------------
D--------------------------/16-14-----14\--------------
A------------------------------------------------------
E------------------------------------------------------


LeandroP
Moderador
# nov/04
· votar


pica-pau com sweep he he he he he

The New Guy
Veterano
# nov/04
· votar


iauheiuaheiaue pica-pau...
Num tem u ki fazer neh

Marisco
Veterano
# nov/04
· votar


pega a Woody Woody Becker no mysongbook
eh uma versão que o jason becker fez... bem legal!

Agente Smith
Veterano
# nov/04
· votar


ae, eu tirei male mal de ouvido, ficou assim :


e----------12-15-12-----------12-15-12--15-12-13-15-13-12----15
B-------13-----------------13-----------------------------15-
G----14-----------------14---------------------------------
D-15-----------------15------------------------------------
A------------------------------------------------------
E------------------------------------------------------




e--15-15-17-15-17-13-13-13-15-13-15-12--12-12-13-17-15-13-12---------- -----------------------
B------------------------------------------------------
G------------------------------------------------------
D------------------------------------------------------
A------------------------------------------------------
E------------------------------------------------------



e----------12-15-12----------12-15-12-15-12-13-15-17-19-21~----------- -----
B-------13----------------13-------------------------------
G----14----------------14----------------------------------
D-15----------------15----------------------------------
A------------------------------------------------------
E------------------------------------------------------


gege_correa
Veterano
# nov/04
· votar


e-------5-----------5--------------------------------------
B-----7---7-------7---7-10-7-8-10-8-7-9-7------------------
G---7----------7-------------------------------------------
D-7---------7----------------------------------------------
A----------------------------------------------------------
E----------------------------------------------------------

hehe, é por aí... sei lá...:-)

LeandroP
Moderador
# nov/04
· votar


continuação da 1a parte...

2a parte:
.

e------------------------------------------------------
B-----12-14-14--13/14------------12-12-----------------
G--14-----------------14------13-------14-13-----------
D--------------------------14--------------------------
A------------------------------------------------------
E------------------------------------------------------

.

e------------------------------------------------------
B--12-12-----12-------------------12-------------------
G--------14-----14-13----------------13----------------
D-----------------------------14-----------------------
A--------------------------14--------------------------
E-----------------------12-----------------------------


new guy
Veterano
# nov/04
· votar


valeu aí galera

banido
Veterano
# nov/04
· votar


e---------7----10----7----------7---10---7---10---7
b------8---------------------8---------------------
g---7--------------------7-------------------------
d--------------------------------------------------
a--------------------------------------------------
e--------------------------------------------------

banido
Veterano
# nov/04
· votar


E--10---7---8---10---8----7---------------------
B------------------------------10---8-----------
G-----------------------------------------------
D-----------------------------------------------
A-----------------------------------------------
E-----------------------------------------------

banido
Veterano
# nov/04
· votar


Junta os dois ae =)

dcvf
Veterano
# nov/04
· votar


tb tem a clássica wipe out, q é a música do jogos de verão (master system) aquela do surf.
no www.mysongbook.com tem, é só procurar por "Wipe Out"

Enviar sua resposta para este assunto
        Tablatura   
 

Tópicos relacionados a musiquinha do pica-pau

286.542 tópicos 7.484.236 posts
Fórum Cifra Club © 2001-2014 Studio Sol Comunicação Digital