Fórum Cifra Club - maior fórum de m&uacite;sica do Brasil

Tab duma "Milonga de gaúcho" alguem sabe

Autor Mensagem
soda_p0p
Veterano
# out/04 · Editado por: soda_p0p


eu to procurando a tab daquelas declamações de poema gaúcho... alguém sabe?

Trop
Veterano
# abr/05
· votar


-----------------------------------------
------------------------------------------
------------------------------------------
------------------------------0-----0-----
------3--2------3--0--1--2-----2--------
--0----------0------------------------2--0

izzystradlin
Veterano
# set/05
· votar


eh de algum artista isso ai? se for diz o nome...

Trop
Veterano
# set/05
· votar


Esse é 1 clichê de milonga, bastante usado nas músicas d Jayme Caetano Braum. Alguém tem outros?

ChocolateGuitar
Veterano
# set/05
· votar


humm
depois gaúcho naum ker levar a fama ... milonga de gaúcho... sem comentários

Wilson Fisk
Veterano
# set/05
· votar


Não sei se isso é milonga... sempre achei que milonga fosse algo parecido com vanera. Esse lance de poesia acompanhada por violão se chama "Payada" e é de origem Argentina, se não me engano. Não precisa tablatura - se é o que estou pensando - é só dedilhar os acordes Lam - Lam5 - Mi - Mi7 alternadamente. Tipo na música "Amigo Punk" da Xilarmônica, não?

Bororeh
Veterano
# set/05 · Editado por: Bororeh
· votar


Chocolate: tu nem deve saber o que é uma milonga, portanto não fale mal dos gaúcho que são muito mais bem informado nesse assunto do que tu.
Wilson: a milonga não é parecida com a vaneira. O ritmo da milonga é muito mais lento e toca-se de forma diferente, além do mais, os acordes usados nas milongas são menores, enquanto não se usam acordes menores em vaneiras (daí o nome vanerão). Quanto ao resto que tu falou, não entendi bulhufas! haha

A tablatura que passaram ali tá certa, mas ela é a "voltinha" nas músicas. Normalmente, toca-se essa voltinha depois de tocar isso aqui:

Na milonga normal:
<pre>
e------------------------------------------------------
B------------------------------------------------------
G------------------------------------------------------
D------------------------------------------------------
A----3-2---3-2-----------------------------------------
E--0-----0---------------------------------------------
</pre>

Na milonga valseada:
<pre>
e----0-0---0-------
B----0-0---0-------
G----0-0---0-------
D------------------
A--------3---2-----
E--0---------------
</pre>

Na milonga dedilhada:
<pre>
e--------------------
B------0------0------
G----0------0------0-
D--------------------
A--------3------2----
E--0-----------------
</pre>

E tem outras variações, dá pra inventar. Essa aí tá em Em, dá pra passá-la pra Am.

Eu também procuro tablaturas de milongas gaúchas, pero é más difícil que foder em pé na rede!

izzystradlin
Veterano
# set/05
· votar


ChocolateGuitar
não somos nós q precisamos provar masculinidade nenhuma perante tamanha ignorancia de alguem sem cultura como vc..imbecil!

Extrapolation
Veterano
# set/05
· votar


soda_p0p
procura algo sobre Dante Ramon Delesma

nao sei se é assim q se escreve, esse cara é joia

tem Cesar Passarinho tb

nao me lembro de cor todos os nomes

Enviar sua resposta para este assunto
        Tablatura   
 

Tópicos relacionados a Tab duma "Milonga de gaúcho" alguem sabe

286.559 tópicos 7.484.617 posts
Fórum Cifra Club © 2001-2014 Studio Sol Comunicação Digital