Fórum Cifra Club - maior fórum de m&uacite;sica do Brasil

Solo do Linkin Park - Numb

Autor Mensagem
Pedro Aurélio
Veterano
# abr/04



e-----------------------17--16-------------17--16------
B-------14--17--14--19----------14--17--14--------17---
G------------------------------------------------------
D------------------------------------------------------
A------------------------------------------------------
E------------------------------------------------------


Pedro Aurélio
Veterano
# abr/04
· votar


O começo do hino do time que vai ser campeão do campeonato carioca domingo, o mengão! so´que não está completo, alguém sabe como continua?

e-5-5-6-5-8----5-8-5------------10----12--10--8--------
B-----------8--------8-6--6-8-6----11------------------
G------------------------------------------------------
D------------------------------------------------------
A------------------------------------------------------
E------------------------------------------------------



e-------10----13--13-12-10-----------------------------
B-6-8-6----11--------------13--------------------------
G------------------------------------------------------
D------------------------------------------------------
A------------------------------------------------------
E------------------------------------------------------


GuitarHouse
Moderador
# abr/04
· votar


Pedro Aurélio
Olá!

infelizmente a galera aqui "discrimina" a banda citada no titulo, cabeça deles. Por isso acho que seu topico nao fará sucesso. Sugiro que peça pros mod mudarem pra algo relacionado ao flamengo ou entao criar outro.

stratopeido
Veterano
# abr/04
· votar


eca

Homem Cueca
Prêmio FCC 2007
# abr/04
· votar


não gosto de Linkin Park principalmente por que 90% das musicas deles fica na batida da bateria em 1 2 3 4 uma nota , 1 2 3 4 outra nota etc...Numb eh exatamente assim...

rules
Veterano
# mai/04
· votar


ah mano ô bandinha ruim viu!!!...credo!!!..tem coisa melhor!!

flpmartin321
Veterano
# mai/04
· votar


ah mano ô bandinha ruim viu!!!...credo!!!..tem coisa melhor!!

Jean
Veterano
# mai/04
· votar


Po gosto é gosto

flpmartin321
Veterano
# mai/04
· votar


Jean
por isso mesmo... cuide do seu senao daqui a poko vc tbm ta ouvindo linkin park hehhehehe

Jean
Veterano
# mai/04
· votar


flpmartin321
aff....

Muriciobr
Veterano
# mai/04
· votar


Limpe o Park

Wecksley
Veterano
# ago/06
· votar


linkin park é do kralho

And the meek shall inherit the earth
Veterano
# ago/06
· votar


Wecksley
belo nome

Blackus
Veterano
# ago/06
· votar


Wecksley
va a merda...

John Elf
Veterano
# ago/06
· votar


linkin park é um kralho

toddy_dus_inferno
Veterano
# ago/06
· votar


MENGO! \o/

iS_LaSh
Veterano
# ago/06
· votar


Hauheuaehuahe

Limpe o Park

O_raffa
Veterano
# ago/06
· votar


Limpe o Park


aiueohaiuehiaueheai que merda vei aiuhaeoiuehoaiuhaeiu

Enviar sua resposta para este assunto
        Tablatura   
Responder tópico na versão original
 

Tópicos relacionados a Solo do Linkin Park - Numb

291.309 tópicos 7.598.862 posts
Fórum Cifra Club © 2001-2014 Studio Sol Comunicação Digital