Notificações Amigos pendentes

      Fórum Cifra Club - maior fórum de m&uacite;sica do Brasil

      Sobre Técnica Palhetando a intro de Cliffs of Dover (Economy Picking)

      Autor Mensagem
      Rei Arthur Pendragon
      Veterano
      # 09/jun/18 16:05


      Fala, pessoal. Sou um guitarrista que sempre utilizou a técnica de palhetada alternada, mas ultimamente tenho incorporado bastante economy picking, devido à influência de guitarristas como Marshall Harrison e Rick Graham. Inserir essa técnica tem me possibilitado fazer alguns padrões de palhetada que antes eu não conseguia com certa velocidade. Resolvi dividir aqui com vocês um exemplo, que é aquela sequência final desta intro de Cliffs of Dover. Não sei se esse tipo de lição ou compartilhamento de experiência guitarrística será interessante para vocês, mas gostaria de dividir mesmo assim.

      Originalmente o Eric Johnson, que utiliza bastante economy picking, toca ela colocando algum ligado, pois essa corrida não é lá muito simétrica. O Eric costuma utilizar economy picking para tocar alguns padrões de cinco notas, como demonstrado abaixo:

      d u d u d |d u d u d| d u d u d |etc
      e--15-12-----------------------------------------------
      B--------15-12----15-12--------------------------------
      G--------------14-------14-12----14-12-----------------
      D-----------------------------14-------14-12-----------
      A--------------------------------------------14--------
      E------------------------------------------------------

      Reparem que rola um minisweep a cada cinco notas. Tocar esse padrão com palhetada alternada dificulta bastante, pois faz com que as palhetadas se invertam na hora de trocar de cordas no início dos padrões. Experimentem para ver. Com alternada fica mais tranquilo tocar alguns padrões com notas pares, como os do Zakk Wylde e Petrucci, como esses abaixo:
      |d  u  d  u|   repete...  |d  u  d  u   d  u| repete..
      e---15-12--------------------15-17-15-12---------------
      B---------15-12---------------------------15-12--------
      G------------------------------------------------------
      D------------------------------------------------------
      A------------------------------------------------------
      E------------------------------------------------------

      Mas caso sejam inseridas notas aleatoriamente fica bastante difícil. Tipo com três notas em uma corda e duas em outra. Eric geralmente utiliza uns ligados para voltar para o padrão que foi demonstrado no início. Aí é que está a questão sobre a qual gostaria de falar. Experimentem a sequência de cinco notas abaixo com alternada:
        d  u  d  u  d   u  d  u  d  u  d  u  d  u  d
      e----17-15-12--------17-15-12-------17-15-12-----------
      B-------------15-12-----------15-12----------15-12-----
      G------------------------------------------------------
      D------------------------------------------------------
      A------------------------------------------------------
      E------------------------------------------------------

      Agora experimentem iniciando com uma palhetada para cima e fazendo um mini sweep na terceira pra quarta nota do padrão:
       |u  d  u  u  d | u  d  u  u  d |u  d  u  u  d |
      e----17-15-12------|-17-15-12------|17-15-12------|----
      B-------------15-12-----------15-12----------15-12-----
      G------------------------------------------------------
      D------------------------------------------------------
      A------------------------------------------------------
      E------------------------------------------------------

      Provavelmente vocês conseguirão mais velocidade quando se acostumarem com a ideia. Fazendo uso desses recursos apresentados aqui, segue a tab de como faço a sequência final da intro de Cliffs. (Começa logo após o final da sequência de palhetada híbrida, aos min do vídeo). PS:eu toquei uma a nota a mais, um B na casa 19 que não tem na original, mas não muda muita coisa.
        d  d  u  d  u  d |u  d  u  d  u |u  d  u  u  d | 
      e-------15-19-17-15-14-17-15-14------------------------
      B----19-------------------------15-13-17-15-13---------
      G----------------------------------------------14-12---
      D------------------------------------------------------
      A------------------------------------------------------
      E------------------------------------------------------

      Reparem aqui o padrão mencionado lá em cima. Ao final eu aproveito a palhetada para baixo para fazer o padrão do jeito clássico do Eric, como é demonostrado na próxima.
      |u  d  u  u  d| u  d  u  u  d| u  d  u  u  d | 
      e------------------------------------------------------
      B------------------------------------------------------
      G---16-14-12-------16-14-12-------16-14-12-------------
      D------------14-12----------14-12----------14-12-------
      A------------------------------------------------------
      E------------------------------------------------------

       d  u  d  u  u   u
      e------------------------------------------------------
      B------------------------18bh(20)vvv-------------------
      G---16-14----------------------------------------------
      D---------17-14----------------------------------------
      A---------------17-------------------------------------
      E-------------------15---------------------------------

      Espero que não tenha ficado muito complexo. O objetivo aqui é mostrar maneiras diferentes e trocar novas ideias a respeito de técnica. Se vocês gostarem posso vir a fazer mais posts sobre isso no futuro. Um abraço.

      LeandroP
      Moderador
      # 10/jun/18 01:46
      · votar


      Rei Arthur Pendragon
      Se vocês gostarem posso vir a fazer mais posts sobre isso no futuro.

      Rá! Eu gostei! Tá lascado rsrs Promessa é dívida ;)
      Excelente contribuição!

      LeandroP
      Moderador
      # 10/jun/18 01:49
      · votar


      Ah, ia me esquecendo... Puta timbre!

      renatocaster
      Moderador
      # 10/jun/18 11:38
      · votar


      Rei Arthur Pendragon

      Excelente abordagem sobre o tema em questão, parabéns!

      Rei Arthur Pendragon
      Veterano
      # 10/jun/18 18:21
      · votar


      Opa... só as autoridades aqui.
      LeandroP
      AHhahaha valeu, meu amigo. Quando tiver uma outra ideia dessas eu posto aqui.

      renatocaster
      Valeu, amigo. Um abraço.

      Enviar sua resposta para este assunto
              Tablatura   
      Responder tópico na versão original
       

      Tópicos relacionados a Sobre Técnica Palhetando a intro de Cliffs of Dover (Economy Picking)

      305.414 tópicos 7.889.856 posts
      Fórum Cifra Club © 2001-2018 Studio Sol Comunicação Digital