Fórum Cifra Club - maior fórum de m&uacite;sica do Brasil

musicas faceis que impressionam

Autor Mensagem
Bender
Veterano
# jan/04


falem musicas faceis que todo mundo ve vc tocando e ficam impressionados!!!!

GuitarHouse
Moderador
# jan/04 · Editado por: GuitarHouse
· votar


stairway to heaven

niredsystalaringologista
Veterano
# jan/04
· votar


se vc tocar os pops rocks de quatro acordes .ja vaum achar q vc toca bem

Bender
Veterano
# jan/04
· votar


essa eu toco sem o solo!!! falem mais.......

ESP
Veterano
# jan/04
· votar


papagaio

Dave Murray
Veterano
# jan/04
· votar


se vc tocar os pops rocks de quatro acordes .ja vaum achar q vc toca bem
eh verdade... aqui no predio enxe de turista agora na temporada... ai tinha uma rodinha e um kra tocando: Bruno e Marrone, To Nem Ai.. e etc... ai uma mina perguntou se ele tirava Come As You Are... ai ele tocou lah, e as mina ficaram pagando pau pra ele achando q ele tocava pra kct...

GuitarHouse
Moderador
# jan/04
· votar


Bender
po, o solo dela tb eh simples pakcete.

tem a intro de Rebirth
Tears In Heaven

Ps1c0
Veterano
# jan/04
· votar


back in black

GuitarHouse
Moderador
# jan/04
· votar


ai uma mina perguntou se ele tirava Come As You Are... ai ele tocou lah, e as mina ficaram pagando pau pra ele achando q ele tocava pra kct...

eu tenho uma raiva disso q c nao tem nocao.

Ps1c0
Veterano
# jan/04
· votar


GuitarHouse
putz eu tbm...essa eh a segunda coisa q eu mais tenho raiva...

a primeira são caras q c acham por ouvir charlie brown

Bender
Veterano
# jan/04
· votar


GuitarHouse
Tears In Heaven meu professor acabou de me passar

Dave Murray
Veterano
# jan/04
· votar


os dedilhado da Rebirth eh uma boa hein... sao bunitos...

niredsystalaringologista
Veterano
# jan/04
· votar



e------------------------------------------------------
B------------------------------------------------------
G------------------------------------------------------
D------------------------------------------------------
A----------4-5-4--------------------------------------
E---0-4-7---------7-4-0--------------------------------


e------------------------------------------------------
B------------------------------------------------------
G------------------------------------------------------
D------------------------------------------------------
A----------4-5-4--------------------------------------
E---0-4-7---------7-4-0--------------------------------

e------------------------------------------------------
B------------------------------------------------------
G------------------------------------------------------
D----------4-5-4---------------------------------------
A--0-4-7----------7-4-0--------------------------------
E------------------------------------------------------

e------------------------------------------------------
B------------------------------------------------------
G------------------------------------------------------
D------------------------------------------------------
A----------4-5-4--------------------------------------
E---0-4-7---------7-4-0--------------------------------

e------------------------------------------------------
B------------------------------------------------------
G------------------------------------------------------
D---------6-7-----------4-5----------------------------
A-----6-9-----9-6-0-4-7-----7-4-0----------------------
E---7--------------------------------------------------


e------------------------------------------------------
B------------------------------------------------------
G------------------------------------------------------
D------------------------------------------------------
A----------4-5-4--------------------------------------
E---0-4-7---------7-4-0--------------------------------


TOCA ESSE CLICHE DO BLUES OU E JAZZ NUMA VELOCIDADE IMPRESSIONANTE, E facil toca lo rapido. pega velocidade logo. os leigos vaum achar q tu e o foda do violaum

Ps1c0
Veterano
# jan/04
· votar


Rebirth eu acho q embaça no verso =/

Dave Murray
Veterano
# jan/04
· votar


Toke Essas Musicas Para Que:

Uma Mina Ache Que Vc Toke Bem:
Extreme - More Than Words

Um Punkzinho Ache Que Vc Toke Bem:
Sum41 - Over My Head

Um Metido a Rockeirinho Ache Que Vc Toke Bem:
Quaqueh uma do Charlie Brown

Um Metaleiro (ai tem muitas) Ache Que Vc Toke Bem:
Iron Maiden - Fear Of The Dark (tem varias musica pra esse kso)

Um Shered (essa eh pra vc tocar pro Beto Guedes :P ) Ache Que Vc Toke Bem:
Michael Angelo - No Boundaries

e assim por diante...
Mas entre esses grupos a variedades de musicas à escolher... eh soh vc pegar qualquer musica dentro do estilo q eu te disse...

Ps1c0
Veterano
# jan/04
· votar


Um Metido a Rockeirinho Ache Que Vc Toke Bem:
Quaqueh uma do Charlie Brown

aHuAhAUAHUhA
isso ae

Bender
Veterano
# jan/04
· votar


Dave Murray
hehehhehe

LeandroP
Moderador
# jan/04
· votar


A música "Sweet Home Alabama" do Lynyrd Skynyrd. É só três acordes soando como cowntry-rock

D/F# - C/E - G/D ... em tríades

Mulx
Veterano
# jan/04 · Editado por: Mulx
· votar


Isso eh um Arpejo Diminuto
Se vcs conseguirem fazer isso bem rápido fica muito legal !!! Os karas pagaum um pau se fizer rápido em ciclos de terças, mas assim jah da pra quebra um gaio...

e---------------------7-10-----------------------|-----
B------------------6-9---------------------------|-----
G--------------4-7-------------------------------|-----
D----------3-6-----------------------------------|-----
A------2-5---------------------------------------|-----
E-1-4--------------------------------------------|-----

Fazendo-se em ciclos de terças fica melhor ainda...dando um efeito melódico...


ICQ: 122848211

III_SlasH_III
Veterano
# jan/04
· votar


poh...sweet child of mine...eh MUITO facil os solo do começo, e qnd tuh toca a galera jah se emocioan pensandi que tuh eh fodao...

Bender
Veterano
# jan/04
· votar


III_SlasH_III
mas aconteceu de um carinha folgado chegou e disse; já vai pro solo do meio!!!! ai fudeu......

Thiago ed
Veterano
# jan/04
· votar


good ridence(time of your live) do green day..eh facil mas td mundo achad + qnd vc toca ela

caiohleal
Veterano
# jan/04
· votar


Wasting Love - Iron Maiden (principalmente pra sua família, garanto que eles vão gostar)

Sultains Of Swing - Dire Straits (Conhecedores de Hard Rock)

Hey Joe - (para iniciantes na guitarra)

e como ja falaram, para os q se dizem rockeiros, Charlie Brown

Demorgan
Veterano
# jan/04
· votar


Pô, fazê só akeles slides da intr de sultans dexa a galera da roga boquiaberta, toka more than words vc escolhe com qual mina vc vai ficar, toca charlie brown põe respeito, green day acústico mostra q vc é profundo conhecedor de vilão!!! Mas fazê o solo de patience mostra q vc toca há 10 anos e num precisa aprender mais nada!!!! Com ele vc cata mina, convence os cara q vc sola, mesmo q eles naum curtam guns eles respeitam isso!!!

Fencer
Veterano
# jan/04
· votar


No tempo em que os animais falavam e que eu tocava guitarra para me exibir e garantir o beijo no final da noite, a boa e velha intro de Sweet Child O'Mine resolvia a parada. Quando tocada com a guitarra nas costas, atrás da cabeça, então, podia render até mais que um beijo, se é que me entendem. :P

caiohleal
Veterano
# jan/04
· votar


podia render até mais que um beijo, se é que me entendem. :P
ñ entendi!!!!! ô_ó

ServeTheServants
Melhor arranjo
Prêmio FCC violão 2008
# jan/04
· votar


Fencer
Uma fratura exposta auhuha?

Fencer
Veterano
# jan/04
· votar


ServeTheServants

Há! Fratura exposta eu nunca vi, mas já vi sujeito trazendo um tufo de cabelo enrolado na ponte e chorando que nem criança. :)

the_paranoid
Veterano
# jan/04
· votar


ql qr musica q a pessoa q escute gosta será impressionante principalmente se o cara q ouve eh leigo

GuitarHouse
Moderador
# jan/04
· votar


uma dor na coluna

Enviar sua resposta para este assunto
        Tablatura   
 

Tópicos relacionados a musicas faceis que impressionam

286.444 tópicos 7.482.159 posts
Fórum Cifra Club © 2001-2014 Studio Sol Comunicação Digital