Fórum Cifra Club - maior fórum de m&uacite;sica do Brasil

Arpejos

Autor Mensagem
Filipe
Veterano
# jan/03


Alguem ai pode me ajudar ,quando e como usar arpejos em diferentes pontos da escala ??

Leandro
Veterano
# jan/03
· votar


Quando vc achar q deve usar e q vai ficar legal na música! =P
Óbvio né? hehehe...

caíto
Veterano
# jan/03
· votar


É... a questão de quando usar arpejos, é você quem tem que observar a melhor hora de usar...
bons arpejistas... malmsteen e macalpine... ouve bastante eles que você vai entender melhor essa coisa de arpejos etc...
como? é só você ir descendo ou subindo as notas do acorde... tente fazer o arpejo o mais longe que você conseguir...
depois eu coloco aqui uns arpejos muito da hora...
boas músicas pra treinar arpejos são Eugenes Trick Bag (do filme Crossroads, sabe?) e Arpeggios From Hell (malmsteen)...

Eh, arpejo é a técnica que eu tenho mais dificuldade, mas eu quebro a cabeça com aquilo...

Falow, mais tarde coloco aqui (ainda hoje)
té mais...

caíto
Veterano
# jan/03
· votar


Arpejos de Acordes:

F
e-------1-5-----------
B-----1-----1---------
G---2-- --------2------
D-3--------------3----

Fm
e-------1-5-----------
B-----1-----1---------
G---1----------1------
D-3--------------3--- -

C
e-----------3-8-3------------
B---------5-------5----------
G-------5-----------5--------
D-----5---------------5------
A-3-7--- ----------------7-3--

Cm
e-----------3-8-3-------------
B-------- -4-------4-----------
G-------5-----------5---------
D-----5-------- -------5-------
A-3-6-------------------6-3---

E
e---------4-7-4- -------
B-------5-------5------
G-----4-----------4----
D-2-6------ ---------6-2

Em
e---------3-7-3--------
B-------5-------5------
G-----4-----------4----
D-2-5---------------2-5

Esses arpejos acima são os desenhos de arpejos mais comuns...

Exercício avançando 1/2 tom
e-5-2---------------2-5
B-----3-----------3----
G-------2------ -2------
D---------4---4--------
A-----------5----------

e-5-1--- ------------1-5
B-----3-----------3----
G-------2-------2------
D-- -------3---3--------
A-----------5----------


Frases e Arpejos para pentatônica de Lá:

C(3ª menor):
e--------------------------7-10-8-7-------------------------- -
B-----------------------8------------8------------------------
G-- ----------------7-9-----------------9----------------------
D-------- -----7-10------------------------10-7----------------
A-------7-10--- -----------------------------------------------
E-8-10--------------- -----------------------------------------

D (4ª Justa)
e-----------8-12-8----------------------------------
B------- 10---------10-------------------------------
G-----9---------------9- ----------------------------
D-12---------------------12-10-11------- ---12-------
A---------------------------------12-10-11----------


Gente, tou morrendo de sono e ainda preciso pegar uma música pra amanhã... falow, té mais...
abração...

caíto
Veterano
# jan/03
· votar


(correção... nesse último arpejo a corda ré e a lá não são tocadas juntas... é assim:
D-12-10-11------------12------
A-----------12-10-11----------

tenderam?
boa noite...

caíto
Veterano
# jan/03
· votar


Arpejos de Acordes:

F
e-------1-5-----------
B-----1-----1---------
G---2-- --------2------
D-3--------------3----

Fm
e-------1-5-----------
B-----1-----1---------
G---1----------1------
D-3--------------3--- -

C
e-----------3-8-3------------
B---------5-------5----------
G-------5-----------5--------
D-----5---------------5------
A-3-7--- ----------------7-3--

Cm
e-----------3-8-3-------------
B-------- -4-------4-----------
G-------5-----------5---------
D-----5-------- -------5-------
A-3-6-------------------6-3---

E
e---------4-7-4- -------
B-------5-------5------
G-----4-----------4----
D-2-6------ ---------6-2

Em
e---------3-7-3--------
B-------5-------5------
G-----4-----------4----
D-2-5---------------2-5

Esses arpejos acima são os desenhos de arpejos mais comuns...

Exercício avançando 1/2 tom
e-5-2---------------2-5
B-----3-----------3----
G-------2------ -2------
D---------4---4--------
A-----------5----------

e-5-1--- ------------1-5
B-----3-----------3----
G-------2-------2------
D-- -------3---3--------
A-----------5----------


Frases e Arpejos para pentatônica de Lá:

C(3ª menor):
e--------------------------7-10-8-7-------------------------- -
B-----------------------8------------8------------------------
G-- ----------------7-9-----------------9----------------------
D-------- -----7-10------------------------10-7----------------
A-------7-10--- -----------------------------------------------
E-8-10--------------- -----------------------------------------

D (4ª Justa)
e-----------8-12-8----------------------------------
B------- 10---------10-------------------------------
G-----9---------------9- ----------------------------
D-12---------------------12-10-11------- ---12-------
A---------------------------------12-10-11----------


Gente, tou morrendo de sono e ainda preciso pegar uma música pra amanhã... falow, té mais...
abração...

Ranndys
Veterano
# jul/06
· votar


GUIA DE ARPEJOS !!!! Mais de 100 TIPOS de ARPEJOS para GUITARRA e VIOLÃO!!!

Cada ARPEJO vem com várias DIGITAÇÕES em todas as REGIÕES do BRAÇO do instrumento. Todos os Arpejos são apresentados em forma de diagrama(gráfico que representa o braço da guitarra ou violão), com indicação dos DEDOS( 1 2 3 e 4 ), mostrando ezatamente onde se localizam as notas ou intervalos de cada arpejo. Imperdível !!!!

Formato em APOSTILA de Ótima qualidade!!!

Com esse GUIA DE ARPEJOS, você poderá improvisar ou compor seus solos e melodias de uma forma muito mais Melódica e Consciente.E não precisará mais ir em busca de informações duvidosas sobre o assunto ARPEJOS !!!

Neste GUIA DE ARPEJOS você encontra os NOMES , as ESTRUTURAS dos ARPEJOS e suas respectivas DIGITAÇÕES em várias REGIÕES do braço do instrumento.

Mais Informações sobre este MATERIAL entre em contato:

ranndys@hotmail.com
ou
http://www.orkut.com/Messages.aspx?xid=15781154051732288359

Dudo_Goldem
Veterano
# dez/09
· votar


Ranndys
Eu to aprendendo arpejos a pouco tempo e eu acho que esse guia vai me ajudar muito, quando vc puder me passa o arquivo por e-mail
egoldemberg@yahoo.com.br
Vlw

Enviar sua resposta para este assunto
        Tablatura   
 

Tópicos relacionados a Arpejos

289.862 tópicos 7.560.385 posts
Fórum Cifra Club © 2001-2014 Studio Sol Comunicação Digital