Notificações Amigos pendentes

      Fórum Cifra Club - maior fórum de m&uacite;sica do Brasil

      Aula Power chords(por ricolb)

      Autor Mensagem
      ricolb
      Veterano
      # fev/10 · Editado por: ricolb


      Salve galera! Sei que existem diversos tópicos falando de Power chords aqui, mas a maioria são de dúvidas da galera, então resolvi criar este tópico na intenção de ajudar quem ainda tiver dúvidas a respeito deste importante assunto. É isso, vamos lá!

      O que são Power Chords?

      Power chords não são acordes. Acordes são formados por 3 notas diferentes, as famosas "tríades" ou mais notas, ao passo que power chords possuem somente duas notas diferentes. O nome mais correto deveria ser "power intervalos" porque só contêm duas notas sendo tocadas simultâneamente ou não. Os power chords são compostos basicamente de Tônica(T) ,um intervalo de 5ª justa(5j), e outra Tônica 8ª acima da 1ª. Basicamente são intervalos de 5ª justa com a dobra de uma ou duas notas, podendo ser a dobra da tônica ou da 5ª justa.

      Cifragem

      Na cifragem dos Power chords normalmente se usa o nome da nota seguido de um "5" que representa a 5ª justa, então se você encontrar a cifra "G5" você já sabe que estamos nos referindo a um Power chord de Sol(G) certo?
      No exemplo abaixo temos o acode G(Sol Maior), o Power chord "G5" (Sol) na sua forma harmônica, ou seja, todas as notas tocadas simultâneamente e depois na sua forma melódica, cada nota sendo tocada uma após a outra(arpejo).

      G G5 G5
      e----3(G)----------x--------------------x-------------------
      B----3(D)----------x--------------------x-------------------
      G----4(B)----------x--------------------x-------------------
      D----5(G)---------5(G)----------------5(G)------------
      A----5(D)---------5(D)------------5(D)----------------
      E----3(G)---------3(G)---------3(G)-------------------

      Obs: ( X) = corda que não deve ser tocada.

      Estilos que mais utilizam

      Apesar da maioria das pessoas associarem Power chords com Hard Rock e Heavy Metal, o seu uso não se restringe a estes estilos musicais e também não é algo peculiar da guitarra, existem muitas músicas em que você pode ouvir este tipo de técnica sendo executada no violão por exemplo, claro sem a distorção costumeira.
      Por serem fáceis de se tocar em qualquer região do braço, são muito usados em músicas que exigem trocas rápidas de acordes. Estes "bicordes" dão o peso musical necessário aos estilos citados e seus derivados, mas são pobre harmonicamente por não possuirem o intervalo de terça maior ou terça menor que é o intervalo que define se um acorde é Maior(M) ou menor(m) . Contudo, isto permite que ele tenha grande flexibilidade, podendo ser usado sobre acordes Maiores ou menores indiscriminadamente.

      As armadilhas

      Por serem fáceis de se aprender a tocar em curto tempo de aprendizado, muitos músicos acabam aprendendo a tocar tudo em power chords e se esquecem de aprender os reais acordes. Isso é um grande erro. Só porque você sabe tocar um power chord de "Dó" não quer dizer que você sabe um acorde de "Dó".
      Aprender os acordes é uma das coisas mais importantes que um guitarrista deve fazer. Não importa qual é o seu estilo musical, você não pode evitar o aprendizado de acordes ! Se você não se dedicar ao estudo deles, poderá se transformar num guitarrista frustrado.

      Power Chords Móveis

      Tônica na 6ª corda – padrão móvel


      Aqui estão desenhos padrão que podem ser movidos criando power chords diferentes. A nota Tônica determina qual power chord é.
      Dê uma olhada neste desenho padrão. A nota na corda "E" grave é a nota Tônica do Power Chord :

      F5
      e---x--------------------------------------------------
      B---x--------------------------------------------------
      G---x--------------------------------------------------
      D---3(F)---------------------------------------------
      A---3(C)---------------------------------------------
      E---1(F)----------------------------------------------

      Portanto temos acima um "Power chord" de Fá, que poderá ser tocado sobre um acorde de F(Fá Maior) ou Fm(Fá menor), entendeu?
      Podemos tocar este padrão ao longo de toda escala criando power chords diferentes. Como no sistema CAGED. Se você ainda sabe o que é isto dê uma boa pesquisada aqui no fórum que está repleto de material a respeito, ok?!

      Aqui o padrão é feito com a tônica no 3º traste. A nota do 3º traste da corda "Mi" grave é "Sol",sendo assim temos um power chord de Sol.

      G5
      e---x--------------------------------------------------
      B---x--------------------------------------------------
      G---x--------------------------------------------------
      D---5(G)---------------------------------------------
      A---5(D)---------------------------------------------
      E---3(G)----------------------------------------------


      Tônica na 6ª corda com corda solta

      Abaixo está o formato de um Power Chord em posição aberta com tônica na 6ª corda. Este é um power chord de "Mi" porque a nota tônica é a corda "Mi" solta.

      E5
      e---x--------------------------------------------------
      B---x--------------------------------------------------
      G---x--------------------------------------------------
      D---2(E)---------------------------------------------
      A---2(B)---------------------------------------------
      E------------------------------------------------------

      O desenho acima geralmente é feito com uma "pestana" do dedo indicador da mão da escala, o qual pressiona todas as cordas menos a "E" grave, que fica solta, como mostrado na TAB. Toca-se somente as cordas 6, 5 e 4.

      Tônica na 5ª corda – padrão móvel

      Bb5 / A#5
      e---x--------------------------------------------------
      B---x--------------------------------------------------
      G---3(Bb)--------------------------------------------
      D---3(F)----------------------------------------------
      A---1(Bb)---------------------------------------------
      E---x---------------------------------------------------

      Como antes já foi dito, é só deslocar o padrão para encontrar novas tônicas, por exemplo:

      C5
      e---x--------------------------------------------------
      B---x--------------------------------------------------
      G---5(C)--------------------------------------------
      D---5(G)----------------------------------------------
      A---3(C)---------------------------------------------
      E---x---------------------------------------------------

      Tônica na 5ª corda com corda solta

      A5
      e---x--------------------------------------------------
      B---x--------------------------------------------------
      G---2(A-----------------------------------------------
      D---2(E)----------------------------------------------
      A------------------------------------------------------
      E---x---------------------------------------------------


      O desenho acima geralmente é feito com uma "pestana" do dedo indicador da mão da escala, o qual pressiona todas as cordas menos a "E" grave e 5ª corda(Lá), que fica solta, como mostrado na TAB. Toca-se somente as cordas 5, 4 e 3.

      Tônica na 4ª corda – padrão móvel

      Eb5 / D#5
      e---x--------------------------------------------------
      B---4(Eb)---------------------------------------------
      G---3(Bb)---------------------------------------------
      D---1(Eb)---------------------------------------------
      A---x---------------------------------------------------
      E---x---------------------------------------------------

      E movendo o padrão:

      E5
      e---x--------------------------------------------------
      B---5(E)---------------------------------------------
      G---4(B)---------------------------------------------
      D---2(E)---------------------------------------------
      A---x---------------------------------------------------
      E---x---------------------------------------------------

      Tônica na 4ª corda com corda solta

      D5
      e---x--------------------------------------------------
      B---3(D)---------------------------------------------
      G---2(A)---------------------------------------------
      D-----------------------------------------------------
      A---x-------------------------------------------------
      E---x---------------------------------------------------

      Tônica na 3ª corda – padrão móvel

      Não é comum se usar estes padrões com tônica na 3ª corda, mas é bom aprendê-los. No exemplo abaixo a nota mais grave não é a tônica e sim a nota da corda 3(sol).

      A5
      e---5(A)---------------------------------------------
      B---5(E)---------------------------------------------
      G---2(A)---------------------------------------------
      D---2(E)---------------------------------------------
      A---x-------------------------------------------------
      E---x-------------------------------------------------


      No exemplo acima: A5, temos a dobra da tônica e a dobra da 5ª . Este Power chord pode ser feito com uma pestana do dedo indicador da mão da escala no 2º traste mais(+) uma meia pestana com o dedo mindinho da mesma mão no 5º traste. É um padrão um pouco difícil de se executar.

      Power chords sem dobras e invertidos

      Existem variações dos desenhos que já foram abordados em que não se usa nenhuma dobra, bastando para isso omitir a nota mais grave ou mais aguda:

      G5
      e-----------------------------
      B-----------------------------
      G-----------------------------
      D--5----------------3--------
      A--5-------5-------5--------
      E--3-------3-----------------

      Como você vê acima, estas são variações de G5, as quais podem ser aplicadas em um G(Sol Maior) ou Gm(Sol menor). No 3º desenho temos um padrão em que a nota mais grave é a 5ª(nota D, 5º traste, corda 5) e não a Tônica(nota G, 5º traste, corda 4) e realmente esta inversão soa como G5.

      Power chords invertidos – Tônica na 5ª corda

      C5
      e--x-------------------------
      B--x-------------------------
      G--x-------------------------
      D--x-------------------------
      A--3-------------------------
      E--3-------------------------

      Aqui temos um desenho em que se usa geralmente a pestana do indicador. A Tônica está na 5ª corda. A nota da 6ª corda é a 5ªj. Este desenho também é móvel e largamente usado, principalmente em estilos musicais mais pesados.

      C5
      e--x-------------------------
      B--x-------------------------
      G--x-------------------------
      D--5-------------------------
      A--3-------------------------
      E--3-------------------------

      Aqui temos uma dobra da 5ª , mais o Power chord continua sendo C5.


      C5
      e--x-------------------------
      B--x-------------------------
      G--5-------------------------
      D--5-------------------------
      A--3-------------------------
      E--3-------------------------

      Dobra da 5ª e da Tônica.


      Power chords invertidos – Tônica na 4ª corda

      E5
      e--x----------x----------x--------
      B--x----------x----------5--------
      G--x---------4----------4--------
      D--2---------2----------2--------
      A--2---------2----------2--------
      E--x----------x----------x--------

      Padrão feito com pestana do indicador no 2º traste. Logo após, duas extensões: 1º com a dobra da 5ª, depois com dobra na 5ª e Tônica. Exemplos em E5.

      Power chords invertidos – Tônica na 3ª corda

      A5
      e------x----------x----------5-----
      B------x----------5----------5-----
      G------2---------2----------2-----
      D------2---------2----------2-----
      A------x----------x----------x-----
      E------x----------x----------x-----

      Padrão feito com pestana do indicador no 2º traste. Logo após, duas extensões: 1º com a dobra da 5ª, depois com dobra na 5ª e Tônica. Exemplos em A5.


      Power chords com a terça

      É isso mesmo! Veja o desenho abaixo e responda:
      .Que Power chord é este???

      e---------------x----------------
      B---------------x----------------
      G---------------x---------------
      D---------------7---------------
      A---------------4----------------
      E---------------x----------------

      Seria um C#5? Definitivamente não. O Power chord acima tem como Tônica a nota do 7º traste da corda 4(D), sendo que a nota mais grave neste desenho(C#) é a terça de A(Lá). Apesar de não trazer um grande reforço harmônico, este tipo de Power chord é muito usado em situações em que o baixo está soando a terça do acorde. Ele seria algo como um "A5/C#", sacou?!


      Exemplo de utilização:

      Harmonia: 4/4 | D | A/C# | C | G/B |

      Power chord: | D5 | A5 | C5 | G5 |


      D5 A5 C5 G5
      e------x-------x--------x----------x-----
      B------x-------x--------x----------x-----
      G------7-------x--------5---------x-----
      D------7-------7--------5---------5-----
      A------5-------4--------3---------2-----
      E------x--------x--------x---------x-----




      Exercícios em Power Chords

      Neste exercício eu abordo a música

      Scorpions – Rock you like a hurricane


      Intro: Em / G / A / C / D
      Versos: C / Em / C / Em / D / C / Em / C / D
      Coro: Em / G / A / C / D


      E5 G5 A5 D5 C5
      e-------x-------x-------x--------x--------x-----------------------
      B-------x-------x-------x--------x--------x-----------------------
      G-------x-------x-------x--------x--------x-----------------------
      D-------9-------5-------7-------7--------5------------------------
      A-------7-------5-------7-------5--------3------------------------
      E-------x--------x-------x-------x--------x------------------------



      Bom galera, por enquanto é isso. Vou tentar atualizar colocando algumas fotos, sons e musicas de exemplo. Sintam se a vontade para efetuar correções, criticar e contribuir. Até mais!

      Desprogramador
      Veterano
      # fev/10 · Editado por: Desprogramador
      · votar


      ricolb
      Boa iniciativa. Eu aplaudo! Há uma correção a ser feita na seção
      Estilos que mais utilizam


      . (...), mas são pobre harmonicamente por possuirem o intervalo de terça maior ou terça menor que é o intervalo que define se um acorde é Maior(M) ou menor(m) .

      Acho que deveria ser:

      "(...)mas são pobres harmonicamente por não possuirem o intervalo de terça maior ou terça menor que é o intervalo que define se um acorde é Maior(M) ou menor(m)."

      ricolb
      Veterano
      # fev/10
      · votar


      Desprogramador
      Ponto pra vc. Correção feita, valeu!

      joaormrt
      Veterano
      # fev/10
      · votar


      Boa cara, parabéns.

      Skider
      Veterano
      # fev/10 · Editado por: Skider
      · votar


      Parabens pelo tópico;

      Ai perguntam, e quando tem na TAB isso:
      ---x---------------------------------------------
      ---x---------------------------------------------
      ---x---------------------------------------------
      ---5---------------------------------------------
      ---5---------------------------------------------
      ---5---------------------------------------------

      Continua sendo um power chord em G5, mas neste caso especifico, é quando existe um "Drop" na corda E(Mizona), consiste é afina-la em um tom mais baixo, nesse caso ai em D(Ré);

      ricolb
      Veterano
      # fev/10
      · votar


      joaormrt
      Skider
      Valeu galera!

      Guitarboy666
      Veterano
      # fev/10
      · votar


      Gostei!
      Eu sabia tudo na prática mais foi bom aprender tudo na teoria :D

      Penta_Blues
      Moderador
      # fev/10
      · votar


      Boa tarde!!!

      ricolb
      Muito legal, meu camarada.
      Já tive oportunidade de escrever um texto sobre Power Chords, mas como não sou muito didático, meus posts acabam ficando com muita coisa escrita e pouco atrativo pra ler.
      Ficou legal a sua formatação.
      Valeu!!!

      Tonanteador
      Veterano
      # fev/10
      · votar


      Caramba mano, clareou legal as idéias aqui, meus parabéns viu?
      Abs

      ricolb
      Veterano
      # fev/10
      · votar


      Guitarboy666
      Penta_Blues
      Tonanteador
      Obrigado a todos vocês, a intenção aqui é dar boas contribuições para o "nosso" fórum. Estou planejando desenvolver um outro texto que tem como título: "Criatividade, Técnica e sensibilidade" tema que já desenvolver nas minhas aulas particulares, porém este trata mais do comportamento, da postura, da visão do músico. ABÇS!

      Power Band
      Veterano
      # fev/10
      · votar


      ótimo tópico ;D

      The Root Of All Evil
      Veterano
      # fev/10
      · votar


      Ficou bem legal a aula, só não concordo com esta motivação aqui:

      Aprender os acordes é uma das coisas mais importantes que um guitarrista deve fazer.

      ricolb
      Veterano
      # fev/10
      · votar


      Power Band
      Abraço, mano!

      The Root Of All Evil
      Sempre polêmico, ehehe, mas tá valendo!

      trashit hc
      Veterano
      # fev/10
      · votar


      ricolb

      muito legal seu tópico!!

      Por serem fáceis de se aprender a tocar em curto tempo de aprendizado, muitos músicos acabam aprendendo a tocar tudo em power chords e se esquecem de aprender os reais acordes. Isso é um grande erro.
      essa parte foi feita sob emcomenda pra mim!!! hahahaha

      punkrock, hardcore, power chords rules!! hehehe

      ricolb
      Veterano
      # fev/10
      · votar


      Exemplo de utilização:

      Harmonia: 4/4 | D | A/C# | C | G/B |

      Power chord: | D5 | A5 | C5 | G5 |


      D5 A5 C5 G5
      e------x-------x--------x----------x-----
      B------x-------x--------x----------x-----
      G----- x-------x--------x----------x-----
      D----- 7------ 7--------5---------5-----
      A------5------ 4--------3---------2-----
      E------x-------x--------x---------x-----


      Corrigindo: Este seria um jeito mais prático de se executar esta sequência de Power Chords. Posicionando sempre o dedo "indicador" na nota da 5ª corda e o dedo "mindinho" na nota da 4ª corda.

      GuitarHouse
      Veterano
      # fev/10
      · votar


      Skider
      Mas sempre deve-se especificar a tonalidade de afinação das cordas, e não apenas colocar o número das casas.

      Skider
      Veterano
      # fev/10
      · votar


      GuitarHouse
      Exato, mais se ve varias tablaturas sem mostrar as afinaçoes, ai quem busca isso e nao tem muita experiencia e nem ouvido, tenta fazer usando a afinação padrao;

      Enviar sua resposta para este assunto
              Tablatura   
      Responder tópico na versão original
       

      Tópicos relacionados a Aula Power chords(por ricolb)

      304.993 tópicos 7.883.140 posts
      Fórum Cifra Club © 2001-2018 Studio Sol Comunicação Digital