Fórum Cifra Club - maior fórum de m&uacite;sica do Brasil

escala maior e escala menor em todo o braço da guitarra - Ezi

Autor Mensagem
ezi
Veterano
# out/08 · Editado por: ezi


olá pessoal, meu nome é Ezilônio, mas podem me chamar de Ezi, que é mais fácil, infelizmente só percebemos nossos nomes depois de grande, ai fica tarde pra poder-mos opinar, mas fazer o que né, temos que honrar nossos pais, que é o primeiro mandamento Biblico com promessa.
sem mais delongas...
eu trago aki um método simples e eficiente pra todos os amantes da guitarra, chega de ficar perdido em seus solos procurando notas ou fazendo a mesmo solo no mesmo lugar a vida toda, não é mesmo? aprenda agora a escala em todo o braço da guitarra ou violão, sem complicação, rimou. rsrs...

Escala Maior com os dedos 4, 2 e 1 na sexta corda. tom (A)

Video mostrando a Escala Maior em todo o braço.



pra facilitar vou passar a escala maior em tab...

Escala maior partindo com o dedo 4, Sexta corda.(A)

e-----------------------------4-5-7--------------------
B-----------------------3-5-7--------------------------
G-----------------2-4-6--------------------------------
D-----------2-4-6--------------------------------------
A-----2-4-5-------------------------------------------
E---5--------------------------------------------------

Escala maior partindo com o dedo 2, Sexta corda (A)

e------------------------------5-7-9-------------------
B------------------------5-7-9-------------------------
G------------------4-6-7-------------------------------
D------------4-6-7-------------------------------------
A------4-5-7-------------------------------------------
E--5-7-------------------------------------------------

Escala maior partindo com o dedo 1, Sexta corda. (A)

e----------------------------------7-9-10--------------
B---------------------------7-9-10---------------------
G---------------------6-7-9----------------------------
D---------------6-7-9----------------------------------
A---------5-7-9----------------------------------------
E---5-7-9----------------------------------------------

Escala maior com os dedos 4, 2 e 1 na quinta corda, tom (A)

Escala Maior partindo com o dedo 4, quinta corda. (A)

e--------------------------------10-12-14--------------
B-----------------------10-12-14-----------------------
G--------------9-11-13---------------------------------
D------9-11-12-----------------------------------------
A---12-------------------------------------------------
E------------------------------------------------------

Escala Maior partindo com o dedo 2 quinta corda. (A)

e------------------------------------12-14-16----------
B---------------------------12-14-15-------------------
G------------------11-13-14----------------------------
D---------11-12-14-------------------------------------
A---12-14----------------------------------------------
E------------------------------------------------------

Escala Maior partindo com o dedo 1, quinta corda. (A)

e----------------------------------------14-16-17------
B-------------------------------14-15-17---------------
G----------------------13-14-16------------------------
D-------------12-14-16---------------------------------
A----12-14-16------------------------------------------
E------------------------------------------------------

Vídeo mostrando a Escala menor em todo o braço.




Escala Menor partindo com o dedo 4, sexta corda. (A)

e----------------------------3-5-7---------------------
B----------------------3-5-6---------------------------
G----------------2-4-5---------------------------------
D----------2-3-5---------------------------------------
A----2-3-5---------------------------------------------
E--5---------------------------------------------------

Escala Menor partindo com o dedo 2, sexta corda. (A)

e-------------------------------5-7-8------------------
B-------------------------5-6-8------------------------
G-------------------4-5-7------------------------------
D-------------3-5-7------------------------------------
A-------3-5-7------------------------------------------
E---5-7------------------------------------------------

Escala Menor partindo com o dedo 1, sexta corda. (A)

e----------------------------------7-8-10--------------
B---------------------------6-8-10---------------------
G---------------------5-7-9----------------------------
D---------------5-7-9----------------------------------
A---------5-7-8----------------------------------------
E---5-7-8----------------------------------------------

Escala menor partindo com o dedo 4, quinta corda.)A)

e--------------------------------10-12-13--------------
B-----------------------10-12-13-----------------------
G---------------9-10-12--------------------------------
D-------9-10-12----------------------------------------
A----12------------------------------------------------
E------------------------------------------------------

Escala Menor partindo com o dedo 2, quinta corda (A)

e------------------------------------12-13-15----------
B---------------------------12-13-15-------------------
G------------------10-12-14----------------------------
D---------10-12-14-------------------------------------
A---12-14----------------------------------------------
E------------------------------------------------------

Escala Menor partindo com o dedo 1, quinta corda (A)

e---------------------------------------13-15-17-------
B------------------------------13-15-17----------------
G---------------------12-14-16-------------------------
D------------12-14-15----------------------------------
A---12-14-15-------------------------------------------
E------------------------------------------------------

ok, é mais o menos isso o que vc precisa saber pra não se perder mais. estude em todos os tons, e começe a arrancar elogios ai. hehe...
falow e um grande abraço, espero está ajudando alguém aki.

ah.. aproveitem e dêem uma olhada nas minhas composições.

Video 1 solo instrumental - Ezi - Manaus Am.



Vídeo 2 solo instrumental - Ezi - Manaus Am.




comentem o tópico, deixando suas críticas e sugestões.

Rough
Veterano
# out/08
· votar


Grande Ezi, grande contribuição cara. Isso vai me ajudar muito!
:)

Slash Hammett
Veterano
# out/08
· votar


bom topico. parabens.

gucrispim
Veterano
# out/08
· votar


pq não um Stick??

guitarg3
Veterano
# out/08
· votar


boa cara =D

_Dio
Veterano
# out/08
· votar


Stick Nesse Tópico, man.


muito Bom

Guitar Boy2
Veterano
# out/08
· votar


Muito legal!!Valeu cara!!
=]

ezi
Veterano
# out/08
· votar


boa cara =D

ei meu, eu vi o teu nick e me lembrei, é que eu tou com uma versão baixada da internet do guitar rig 3 e achei o máximo, tu tens ele ai cara? quanto é? como faço pra conseguir a versão free. rsrs...
abraços.

ezi
Veterano
# out/08
· votar


ei galera desculpem minha ignorância mais o que quer dizer esse stick ai meu?
stick que eu conheço no inglês é vara. rsrs

Rough
Veterano
# out/08
· votar


Stick seria fixar o tópico como importante, irá aparecer sempre no topo da seção do fórum Guitarra. STICK NELE!
E sobre o guitar rig e derivados.. você pode usar o santo google ou.. me add pnkd_13@hot que eu te passo hehe

Raven_Heart
Veterano
# out/08
· votar


EXCELENTE tópico, muito bom mesmo, vai ajudar bastante gente.
ezi
Cara, valeu mesmo pela iniciativa e boa disposição de ajudar a todos.

Apesar do fórum de guitarra já ter uma pancada de tópicos fixados, acho que seria legal fixar esse também. STICK por favor!!

Soulface
Veterano
# out/08
· votar


ezi
Cara... Mais 5 tópicos úteis como esse e eu encabeço um abaixo assinado para autorizarem a sua mudança de nome!

makumbator
Veterano
# out/08
· votar


Soulface

Cara... Mais 5 tópicos úteis como esse e eu encabeço um abaixo assinado para autorizarem a sua mudança de nome!

Hshhashsah! E eu ajudo a pagar o advogado!!! Hehehhehe

Pirata Irlandes
Veterano
# out/08 · Editado por: Pirata Irlandes
· votar


Gostei do tópico!

Rafaelvbl
Veterano
# out/08
· votar


Bom tópico, vou poder praticar mais com estas novas técnicas, pois ainda estou me iniciando e quanto mais informação melhor!!!

ezi
Veterano
# out/08
· votar


Rough
Stick seria fixar o tópico como importante, irá aparecer sempre no topo da seção do fórum Guitarra. STICK NELE!

obrigado pela a explicação do stick, rsrs. eu tou com um probleminha no meu msn, mas assim que eu resolver te add. tou precisando e muito do guitar rig 3.
mas e ae, quem fixa os tópicos então? o pessoal que administra o site ou somos nós mesmo?

ezi
Veterano
# out/08
· votar


Soulface

Cara... Mais 5 tópicos úteis como esse e eu encabeço um abaixo assinado para autorizarem a sua mudança de nome!


aushaushaasuharshehija. eu nem sei se ainda quero mudar de nome já tou muito conhecido, axo que não seria possível, mas se tu quiser pagar um advogado eu aceito, pq tem um pilantra aki que está me devendo há um ano e não quer me pagar.

ezi
Veterano
# out/08
· votar


ei gente eu tava com umas idéias meio doida aki, o pessoal querendo aula de guitarra, será que não tem como dar aula on-line não?
sei lá pelo o msn axo que num dar porque a cam vive travando. eu usei o msn do yahoo e nele dar pra fazer conferencia com 50 pessoas com a cam aberta e o audio em tempo real, já me falaram que o skype daria, já pensou?
axo que seria legal essa parada, cobraria um preço bem bacana e todos se ajudavam, pq eu tou com tempo de sobra aki, passo o dia em casa, hehe.

ezi
Veterano
# out/08 · Editado por: ezi
· votar


video 3 solo instrumental ezi eclipse


Vingança Troll
Membro
# jul/11
· votar


Up porque esse tópico e bom

estou ressusitando sim.... muito explicativo

Jg Destroyer
Veterano
# jul/11
· votar


Vingança Troll
De vez em quando é bom fazer uma coisa util, hein MV? asiuehae

=)

Vingança Troll
Membro
# jul/11
· votar


Jg Destroyer


(y

ezi
Veterano
# nov/11
· votar


vejam minhas músicas instrumentais

http://soundcloud.com/eziloniosantos/tracks

meu nome é Ezilônio

NoIdeaS
Membro
# dez/11
· votar


porra legal ai cara

CaioRobertoBR
Membro
# dez/11
· votar


Postei aqui só pra não perder o tópico.

Fui!

DiegoNew
Membro
# dez/11
· votar


Olá , eu estou começando a estudar Escalas agora !, Bem vou direto ao ponto
Eu peguei o shape da escala de Dó em todo braço ( percebi que era de dó depois) aquela que o Gp5 mesmo fornece, tem algum jeito em que eu use esse mesmo shape em outras tonalidades? Agradeço a atenção

saishiro
Membro
# 28/mai/12 19:54
· votar


mandou muito bem ezi!
ajudou muito mesmo! Que Deus te abençoe e ajude a aprimorar cada vez mais do seu talento!

Enviar sua resposta para este assunto
        Tablatura   
 

Tópicos relacionados a escala maior e escala menor em todo o braço da guitarra - Ezi

286.482 tópicos 7.482.923 posts
Fórum Cifra Club © 2001-2014 Studio Sol Comunicação Digital