Notificações Amigos pendentes

      Fórum Cifra Club - maior fórum de m&uacite;sica do Brasil

      Qual escala se aplica nos acordes alterados?existe escala aumentada?

      Autor Mensagem
      malacaxeta
      Veterano
      # jul/07


      Qual escala se aplica nos acordes alterados?e por favor passe o desenho!!



      existe escala aumentada?também o desenho da própria!!


      escala dimuida?

      Thedekai
      Veterano
      # jul/07
      · votar


      malacaxeta
      até onde eu estudei nunca ouvi falar de escalas aumentadas e DIMINUTAS, e não dimuida ... ou seja la o que for isso ahuhauhua
      conheço escalas maiores, menores naturais, menores harmônicas, menores melódicas


      Qual escala se aplica nos acordes alterados?e por favor passe o desenho!!


      quando vc quis dizer acordes alterados, quis dizer que não sejam maiores?!
      vix veio se vc não sabe nem o que vc quer dizer é melhor vc estudar antes de fazer uma pergunta desse tipo
      varias escalas podem ser usadas em um mesmo campo hamônico se vc não faz nem ideia do que seja isso começe a estudar

      Thedekai
      Veterano
      # jul/07
      · votar


      http://forum.cifraclub.com.br/forum/3/143428/
      isso ja é um bom começo
      excelente tópico!
      abraço

      Snakepit
      Veterano
      # jul/07
      · votar


      O que existe são escalas maiores e menores.

      Por exemplo, escala de Mi e Mi menor, que no caso é a de Sol maior.

      Se usar acorde por exemplo E7, utiliza a escala de Mi maior mesmo, que é o tom.

      Espero não ter falado merda! hehehe

      Thedekai
      Veterano
      # jul/07
      · votar


      Snakepit

      Por exemplo, escala de Mi e Mi menor, que no caso é a de Sol maior.


      a de G que é igual a de Em, porque é o seu relativo menor hehe é isso mesmo ta certo

      thomasmoura
      Veterano
      # jul/07
      · votar


      Existem escalas aumentadas e diminutas sim.

      Quem usa o Guitar Pro é só dar uma checada na biblioteca de escalas. Inclusive possuo um e-book "Diminished scale for guitar".

      Agora, vc pode usar escalas maiores, menores e pentas c/ acordes diminutos, basta que as notas da escala se aproximem das notas contidas no acorde.

      brunoepronto
      Melhor participante de jam
      Prêmio FCC violão 2008
      # jul/07
      · votar


      Thedekai
      Acorde alterado é um acorde maior com a 5ª aumentada, ex: C alterado - Calt ou C+(C, E e G#)

      _FrEd_
      Veterano
      # jul/07
      · votar


      brunoepronto

      N necessariamente a 5, vc pode alterar a Tônica ou a Terça tb..

      Ex: E7(b9), A7(#9) são acordes alterados que poderiam ateh ser escritos simplesmente como E7alt ou A7alt, ae caberia vc interpretar qual dissonancia colocar no lugar do "alt"...

      Thedekai
      Veterano
      # jul/07
      · votar


      brunoepronto

      Acorde alterado é um acorde maior com a 5ª aumentada, ex: C alterado - Calt ou C+(C, E e G#)


      isso não é um acorde aumentado? triade aumentada e sétima maior?
      T 3 5M e 7M ?

      Edson Sousa
      Veterano
      # mai/08
      · votar


      malacaxeta

      A escala que se aplica nos acordes alterados é a escala alterada, também chamada de modo superlócrio (VII modo da escala menor melódica) O acorde alterado é um acorde dominante com alteração na quinta e/ou nona.

      Exemplos: A7(#5) A7(b5) A7(#9) A7(b9) A7(#5#9) A7(b5#9) A7(#5b9) A7(b5b9). Intervalos: 1 b9 #9 3 b5 #5 b7

      Desenho da escala alterada de A7alt


      e--------------------------------------------5--6--8--
      B--------------------------------------6--8-----------
      G-----------------------------5--6--8-----------------
      D--------------------5--7--8--------------------------
      A-----------4--6--8-----------------------------------
      E--5--6--8--------------------------------------------


      Escala aumentada, chamada também de hexatônica e tons inteiros (whole tone) Intervalos: 1 9 3 b5 #5 b7
      Exemplo em F7(#5) F7(b5)


      e---------------------------------7-9-11------------------
      B--------------------------6-8-10-------------------------
      G--------------------4-6-8--------------------------------
      D--------------3-5-7--------------------------------------
      A--------2-4-6--------------------------------------------
      E--1-3-5--------------------------------------------------



      Escala diminuta de Aº Intervalos: 1 9 b3 11 b5 b13 bb7 7


      e-----------------------------------------------4--5--7---
      B--------------------------------------4--6--7------------
      G-----------------------------4--5--7---------------------
      D--------------------4--6--7------------------------------
      A-----------5--6--8---------------------------------------
      E--5--7--8------------------------------------------------


      Desculpem ressuscitar esse tópico, espero que seja útil. Um abraço

      GuilhermeBaixista
      Veterano
      # mai/08
      · votar


      Edson Sousa

      Quem sabe faz ao vivo !! Vc podia gravar uns vídeos com essas escalas, dando exemplos de sua aplicação, o q acha ? vendo e ouvindo fica bem mais fácil de assimilar...mas de qq forma, obrigado pela moral aí !

      Abç

      Edson Sousa
      Veterano
      # mai/08
      · votar


      GuilhermeBaixista
      Gostei da idéia, mas seria no contrabaixo. hahahahaha
      Um abraço

      Bolo de laranja
      Veterano
      # mai/08
      · votar


      malacaxeta

      Qual escala se aplica nos acordes alterados?e por favor passe o desenho!!

      Pode se aplicar a escala alterada,ou 7º modo da menor melódica.

      O desenho eu acho que seria um bom exercício montá-los,assim como faço com os meus,mas o amigo já passou aí em cima.

      Abraço

      Minow
      Veterano
      # mai/08
      · votar


      Bolo de laranja
      Você sabe o que é um acorde alterado?

      ric dionisio
      Veterano
      # mai/10
      · votar


      sim.

      xerife5
      Veterano
      # nov/11
      · votar


      alguem pode me enviar a escala para esses dois acordes E7 9# e G7 13 ..poderia me enviar nota por nota ....desculpa eu to aprendendo

      xerife5
      Veterano
      # nov/11
      · votar


      Vou precisar improvisar sobre essa harmonia: Am7-Bm7-Am7-G9-E7 #9 ...alguém poderia me dar uma dica do q usar pra improvisar sobre essa hamonia pra eu dar uma treinada ....to aprendendo ....desculpa minha ignorancia !

      sidguitar1
      Veterano
      # nov/11
      · votar


      xerife5
      tem varias opões q ja foram colocadas no topico, vo te passar ja transportada pros acordes q vc falo mais mastigado impossivel

      pro G7 13 sol mixolidio(escala de do maior)

      e------------------------------------------------5-78-----
      B----------------------------------------5-6--8-----------
      G---------------------------------4-5-7-------------------
      D-------------------------3 5-7----------------------------
      A----------------3-5--7-----------------------------------
      E-------- 3 5 7 ----------------------------------------------


      pro E 7(#9) vc pode usas varias, acho mais facil vc usar a dom dim


      e------------------------------------------------------
      B------------------------------------------------------
      G------------------------------------------------------
      D----------------------------------12 14 15--------------------
      A-----------------------13 14 16 -------------------------------
      E-------12 13 15 16-----------------------------------------------


      sidguitar1
      Veterano
      # nov/11 · Editado por: sidguitar1
      · votar


      no Am e Bm vc pode usar sol maior( daria pra vc tocar por acorde aqui considerando dorico o Bm(escala de la maior) e Am dorico(escala de sol maior) mas ja q vc nao ta por dentro da teoria da coisa tente simplificar usando sol maior pros dois acorde q fecha

      e------------------------------------------------------
      B------------------------------------------------------
      G---------------------------------4--5---7---------------
      5A------------------3----5---7-----------------------------
      E-------3 5 7-----------------------------------------------


      se aceitar uma dica,estude classificaçao qualitativa e quantitativa de intervalos q vc nao vai precisar pedir mais pra ninguem escalas ja q vai analizar as configuraçoes delas e saber em q acordes se enquadram

      passei a dom dim e a de sol em uma oitava so pq essa tab daqui fica toda zuada, pesquise na net q tem os desenhos no braço todo,ou monte elas q nao tem erro,abraço

      Tele_Guitar_man
      Membro Novato
      # 10/ago/17 22:37
      · votar


      Pessoal aproveitando o tópico para pedir se algum manjador pode me dar uma luz sobre qual escala improvisar nas musicas do Djavan... principalmente Samurai.. Pois tentei as escalas naturais e pentatonicas mas imaginei que não iam funcionar em um música com tantas variações de acordes...

      Que tipo de escola devo usar ? Se puderem colocar uma imagem também facilita....

      Enviar sua resposta para este assunto
              Tablatura   
      Responder tópico na versão original
       

      Tópicos relacionados a Qual escala se aplica nos acordes alterados?existe escala aumentada?

      303.928 tópicos 7.864.266 posts
      Fórum Cifra Club © 2001-2017 Studio Sol Comunicação Digital