Notificações Amigos pendentes

      Fórum Cifra Club - maior fórum de m&uacite;sica do Brasil

      Desenho de Penta 3 notas por corda

      Autor Mensagem
      LDC
      Veterano
      # jul/07


      Pessoal vi uns exemplos no you tube de penta com 3 notas por corda, alguem poderia me disponibilizar os dezenhos delas???


      fica muito loco :)


      valew

      LDC
      Veterano
      # jul/07
      · votar


      se alguem puder me dar uam aulinha simples e ressumida de como acho os intervalos e as tais relativas agradeço é que até hoje só toco de ouvido voiu criando apartir do que achoq ue fica bom quando tocado, mas não manjo nada de escalas..

      thiago stteffen
      Veterano
      # jul/07
      · votar


      tambem gostaria disso.........

      Screamer_Strings
      Veterano
      # jul/07
      · votar


      ola amigo,
      muitos topicos bons aqui abrangem essa parte de teoria musical, pentatonicas, modos gregos, e para quem toca de ouvido é uma mão na roda ter esse conhecimento, dá para aproveitar bastante já sendo criativo com uma pentatonica bem colocada, ve na procura aí sobre este inicio de teoria musical q tem muito material bom e de facil entendimento
      um abraço

      LDC
      Veterano
      # jul/07
      · votar


      Screamer_Strings


      é to dando uma olhada nos topicos, os intrevalos ja entendi mas ainda assim não achei quais intervalos usar para conseguir 3 notas por corda numa penta.....

      sera que se eu juntar 2 dezenhos delas a fim de obter 3 notas é valido?

      Vivaro
      Veterano
      # jul/07
      · votar


      será que a escala q vc viu não era de blues ? pq pentatonica so tem 2 notas por corda, a seguir vai os links pra escala pentatonica e de blues respectivamente.(o site eh gringo mais da pra entender o desenho)

      http://www.cyberfret.com/scales/minor-pentatonic/index.php
      http://www.cyberfret.com/scales/blues/index.php

      JoeCruzGuitar
      Veterano
      # jul/07
      · votar


      Dá pra usar 3 notas por corda sim pessoal.

      Escala é escala, composta por uma formula, intervalos caracteristicos e sonoridade.

      Como vc vai digitar ?

      Sei lá, se vira nos 30. Dá pra digitar uma escala inteira em uma corda só.

      Assim como dá pra digitar uma penta com 3 notas por corda.

      guschard
      Veterano
      # jul/07
      · votar


      Vivaro
      a pentatonica naum tem 2 notas por corda... isso eh um shape dela
      vc pode fazer a pentatonica inteira em uma corda soh, como tocar ela com 1 nota por corda

      LDC
      pega as notas da penta, e vai formando... vo tenta faze uma aqui

      JoeCruzGuitar
      Veterano
      # jul/07
      · votar


      To desenhando aqui uns exemplos blz ?

      Tem um lick que eu criei que uso bastante, e é uma digitação de penta blues com 3 notas por corda, num padrão pattern

      guschard
      Veterano
      # jul/07
      · votar



      e-------------------------------------------17-20-22---
      B----------------------------------15-17-20------------
      G-------------------------12-14-17---------------------
      D----------------10-12-14------------------------------
      A--------7-10-12---------------------------------------
      E-5-8-10-----------------------------------------------


      JoeCruzGuitar
      Veterano
      # jul/07
      · votar


      SEguinte :

      Este é um exercicio para abertura dos dedos, chamo esta digitacao de Penta Strech


      E||----------------------------|------------8--||
      B||----------------------------|--5--8--10-----||
      G||-------------------------7--|---------------||
      D||---------------5--7--10-----|---------------||
      A||------------7---------------|---------------||
      E||--5--8--10------------------|---------------||


      JoeCruzGuitar
      Veterano
      # jul/07
      · votar


      uia, ia postar exatamente este desenho do guschard heheh

      bom, quem usa bastante este padrão é o mestre Pablo Gilberto.

      JoeCruzGuitar
      Veterano
      # jul/07
      · votar


      pra fechar então, o tal do pattern (lick), com 3 notas por corda (na verdade são triplets, vc pode digitar dois grupos de 3 por corda com hammer e pull offs, o efeito é bem legal



      ---------------------------|----------------------------|-----------11 -12-15-12-11----------|
      ---------------------------|----------------------------|--10-13-15--- -------------15-13-10-|
      ---------------------------|---------8-9-12-9-8---------|------------- ----------------------|
      ---------------------------|-7-10-12------------12-10-7-|------------- ----------------------|
      ---------6-7-10-7-6--------|----------------------------|------------- ----------------------|
      --5-8-10------------10-8-5-|----------------------------|------------- ----------------------|


      guschard
      Veterano
      # jul/07
      · votar


      JoeCruzGuitar
      curti
      uhauhauhauhaauh

      lula_molusco
      Veterano
      # jul/07
      · votar


      dahora

      Vivaro
      Veterano
      # jul/07
      · votar


      iey!

      Vivaro
      Veterano
      # jul/07
      · votar


      vivendo e aprendendo

      Enviar sua resposta para este assunto
              Tablatura   
      Responder tópico na versão original
       

      Tópicos relacionados a Desenho de Penta 3 notas por corda

      302.829 tópicos 7.838.061 posts
      Fórum Cifra Club © 2001-2017 Studio Sol Comunicação Digital