Fórum Cifra Club - maior fórum de m&uacite;sica do Brasil

Alguem sabe Tocar "Os Últimos do moicanos"??

Autor Mensagem
Schwed
Veterano
# mai/06 · Editado por: Schwed


E ai pessoal, alguem sabe tocar na guita, aquela trilha sonora q passa no filme O Ultimo dos Moicanos???

Eu estou com dificuldades pra tirar....

Vejam o q toquei até agora...

http://rapidshare.de/files/20154907/ultimo_dos_moicanos.wav.html


Antes de me xingarem dêem um desconto por eu tocar só a quase 4 meses....

Schwed
Veterano
# mai/06
· votar


alguem...?

Snakepit
Veterano
# mai/06
· votar


essa musica é legal. tem q procurar no google, se nao achar lá nao existe a tab...

marcio_zav
Veterano
# mai/06
· votar


Procure um midi.

Schwed
Veterano
# mai/06
· votar


eu ja sei tocar, baixem e ouçam eu tocando, mas eu to tocando muito mal ela..... Me dêem umas dicas

Renkar
Veterano
# mai/06
· votar


Eu sei tocar ela no teclado.. na guitarra/violão tb não é difícil

Eu baixei e escutei. Tá quase toda certa!!
Só tem umas modificações que você pode fazer pra deixar mais idêntico à música, vou ver se eu faço uma tab dela agora pra vc
Abraços!

Schwed
Veterano
# mai/06
· votar


Renkar

Opa, obrigado ... estou no aguardo...

Renkar
Veterano
# mai/06 · Editado por: Renkar
· votar


Assim.. tem algumas variações da digitação dessa música, mas no geral, eu toco no teclado e no violão igual essa tab q eu fiz:

e----------------------------------------------
B----------------------------------------------
G-------------10--9--7--9--7-----7-------------
D---7---7-7------------------10-----10--5--7---
A----------------------------------------------
E----------------------------------------------

=

e------------------------------------------------------
B------------------------------------------------------
G-------------10--9--7--9--7-----7----------5---5-5----
D-------7-7------------------10-----10--5--------------
A------------------------------------------------------
E------------------------------------------------------

=

e-----------------------------------------------------------------
B----5-----5--8--6--5-----5--5----------5-----5--8--6--5-----5--5-
G-------5--------------5--------5---5-5----5--------------5-------
D-----------------------------------------------------------------
A-----------------------------------------------------------------
E-----------------------------------------------------------------

=

e--------------------5---------------------------------
B--6---6-6--6-----6-----8--6---6--6--5---5-5--5-----5--
G--------------5-------------5-------------------5-----
D------------------------------------------------------
A------------------------------------------------------
E------------------------------------------------------

=

e------------------------------------------------------
B--8--6--5-----5--5------------------------------------
G-----------5--------7---7-7--7-----7--10--9--7--------
D--------------------------------7---------------7-----
A------------------------------------------------------
E------------------------------------------------------

=

e------------------------------------------------------
B------------------------------------------------------
G--7--7--7------7--7------7--10--9--7--9--7------------
D-----------10--------10---------------------10--7-----
A------------------------------------------------------
E------------------------------------------------------


Qualquer dúvida me fale ;)
Abraços!

Schwed
Veterano
# mai/06
· votar


Renkar
Obrigado cara, estou tentando tocar essa musica faz um tempão....

Renkar
Veterano
# mai/06
· votar


Schwed

Agora vai conseguir ^^
Vc tava tocando quase certo, só falta modificar algumas coisinhas e tocar 1/2 tom abaixo do que vc tocava (que foi do jeito q eu escrevi a tab).
É isso ae ;)

\o/

Enviar sua resposta para este assunto
        Tablatura   
Responder tópico na versão original
 

Tópicos relacionados a Alguem sabe Tocar "Os Últimos do moicanos"??

291.284 tópicos 7.598.469 posts
Fórum Cifra Club © 2001-2014 Studio Sol Comunicação Digital