Fórum Cifra Club - maior fórum de m&uacite;sica do Brasil

Galera exercicios p/ mao Esquerda

Autor Mensagem
BaDComPaNY
Veterano
# dez/05


Opa pessoal,to voltando ao forum entao Oi pa todos
Tipo toko violao a 1 ano autodidata e eu qeria saber alguns exers para aumentar a velocidade na mao esqerda.Qem puder ajudar

A minha palhetada alternada eh ate legalzinha jah consigo toka o começo do solo de ''stairway'' legal,ateh onde meu violao sem cut me permite.

PS:Vo compra minha guitar no meio de janeiro ai jah vai da pa treina legal.

Steve Morsa
Veterano
# dez/05
· votar


jah consigo toka o começo do solo de ''stairway''

com palheta? Oo

eu qeria saber alguns exers para aumentar a velocidade na mao esqerda

e---------------------2-3-2-------------------------------
B-----------------1-4-------4-1----------------------------
G-------------2-3---------------3-2------------------------
D---------1-4-----------------------4-1--------------------
A-----2-3-------------------------------3-2----------------
E-1-4---------------------------------------4-1------------


e---------------------3-4-3-------------------------------
B-----------------1-2-------2-1----------------------------
G-------------3-4---------------4-3------------------------
D---------1-2-----------------------2-1--------------------
A-----3-4-------------------------------4-3----------------
E-1-2---------------------------------------2-1------------


e---------------------2-4-2-------------------------------
B-----------------1-3-------3-1----------------------------
G-------------2-4---------------4-2------------------------
D---------1-3-----------------------3-1--------------------
A-----2-4-------------------------------4-2----------------
E-1-3---------------------------------------3-1------------


Começa devagar e vai aumentando a velocidade aos poucos, um metrônomo ajuda, abração!

BaDComPaNY
Veterano
# dez/05
· votar


Steve Morsa
Q eu saiba o solo eh com palheta nao eh?!!??8)
E vlws pwla ajuda amigao

Steve Morsa
Veterano
# dez/05
· votar


BaDComPaNY
Q eu saiba o solo eh com palheta nao eh?!!??8)
Ah bom, achava que era a intro da música :P

E vlws pwla ajuda amigao
De nada, se precisar tamos ae :)

Guitar Warrior
Veterano
# dez/05
· votar


já que vc toca violão entaum você precisa de palhetada para poder treinar a maum esquerda pq se vc der legattos para treinar só a maum esquerda vc não vai ouvir som algum (se o violão for acustico).

Então enquato vc tah no violaum treina com palhetada mesmo... depois que passar pa guitar manda bala com legattos!! Pega o vídeo Rock Discipline de John Petrucci que lá ele dá um show de tecnicas para desenvolver a maum esquerda

BaDComPaNY
Veterano
# dez/05
· votar


Guitar Warrior
Vlws eu qeria n veloc el ligados ainda,eu tava pensando na agilidade dos dedos de pressionar as notas rapido pq as vezes meus dedos esq n acompanham a veloc da palhetada

Midgard
Veterano
# dez/05
· votar


1234

Dudu Alves
Veterano
# dez/05
· votar


1ªsérie l 2ªsérie l 3ªsérie l 4ªsérie l
l l l l
1234 l 2341 l 3412 l 4123 l
1243 l 2314 l 3421 l 4132 l
1342 l 2431 l 3124 l 4231 l
1324 l 2413 l 3142 l 4213 l
1423 l 2134 l 3214 l 4321 l
1432 l 2143 l 3241 l 4312 l
_______l_________l___________l_________l

Faça uma série por dia, subindo e descendo até o final do braço utilizando a palhetada alternada.

Dudu Alves
Veterano
# dez/05
· votar


saiu errado o quadro que eu fiz, se vc não entender é só falar que eu explico

Enviar sua resposta para este assunto
        Tablatura   
 

Tópicos relacionados a Galera exercicios p/ mao Esquerda

290.209 tópicos 7.570.727 posts
Fórum Cifra Club © 2001-2014 Studio Sol Comunicação Digital