Fórum Cifra Club - maior fórum de m&uacite;sica do Brasil

acorde A9

Autor Mensagem
tocador
Veterano
# ago/03


alguem pode fala como e o acorde A9
valeu

Fernando
Veterano
# ago/03
· votar



e-0-----------------------------------------------------
B-0-----------------------------------------------------
G-2-----------------------------------------------------
D-2-----------------------------------------------------
A-0-----------------------------------------------------
E------------------------------------------------------


GuitarHouse
Moderador
# ago/03
· votar


E ai!

Fernando
acho q isso nao eh A9.

Vc fez um Asus9 (ou teoricamente Asus2 tb), pois trocou a 9ªpela terça do acorde (vc trocou pelo c#), ou seja, nota suspensa..pode v q ai nao tem o C#

tocador
us exemplos de A9 eh:


e--7---0---0--3-------------------------
B--5---2---0--2-------------------------
G--6---4---6--5-------------------------
D--5---5---5--2-------------------------
A--7---0---0--0-------------------------
E--5---x---------------------------------



o A9 tem as seguintes notas: A, B, C#, E e G

tem um monte de maneiras de fazer

flw

John Andrade
Veterano
# ago/03
· votar


Tem também os acordes Alterados, que você pode usar a 9# ou 9b, 5ªaum ou 5ªdim.

Santiago
Veterano
# ago/03
· votar


Axo q o A9 do fernando tb ta valendo.. pelo menos pra tocar uma musica do Nenhum de Nos eu uso ele assim..

GuitarHouse
Moderador
# ago/03
· votar


Santiago
qual musica do nenhum de nos?

Santiago
Veterano
# ago/03
· votar


Ah nao velho.. viajei.. nao eh A9 e sim A4.. mal ai!! huauhahuahuahuauha
A musica eh Voce vai lembrar de mim..

GuitarHouse
Moderador
# ago/03
· votar


A4 eh assim

e-0----------------------
B-3--------------------
G-2---------------------
D-2---------------------
A-0---------------------
E----------------------


Sversut
Veterano
# ago/03
· votar


Guita> Okei. Desapareceu a 3ª, mas eu costumo usar assim mesmo, pois normalmente onde aparece A9 funciona bem, mas não entendi porque G (7ª) na sua formação.
A7/9> Esse entra G
A9...Não sei. Pois já ouvi dizer que nesse caso está IMPLÍCITO tb a 7ª. Daí vc teria razão.
E Aê?????

Sam
Moderador
# ago/03
· votar


http://www.cifraclub.com.br/cifras/dicionario.php?acorde=A9

:oD

Cassio
Veterano
# ago/03
· votar


Tb não entendi isso aí
Dicionário não resolve, pois lá consta A9 x02200, como o fera lá cima colocou.
Parece que o skema é meio opcional: Tire a 3ª e meta a 9ª

king_arthur
Veterano
# ago/03
· votar


o A9 tem as seguintes notas: A, B, C#, E e G

O meu, mas A9 nao seria Lá com nona?
o A eh A, C#, E
Com a nona fica A, B, C#, E
Aquele G ali nao entra na historia.

GuitarHouse
Moderador
# ago/03
· votar


ah..nem sei pq pus a 7ª

Enviar sua resposta para este assunto
        Tablatura   
 

Tópicos relacionados a acorde A9

290.177 tópicos 7.569.822 posts
Fórum Cifra Club © 2001-2014 Studio Sol Comunicação Digital