Fórum Cifra Club - maior fórum de m&uacite;sica do Brasil

como fazer power chord

Autor Mensagem
carolina martins
Veterano
# nov/05


oi alguem pode me dize como fazer esse acordes em power chord
Ab - Bb - Cm - D - Eb - G
vlw

Fritz_mkvl
Veterano
# nov/05 · Editado por: Fritz_mkvl
· votar


.........................................

nettoroses
Prêmio FCC 2007
# nov/05
· votar



e------------------------------------------------------
B------5------------------------------------------------
G------5-7-8----------------------------------------------
D--6-8-5-7-8-5-----------------------------------------------
A--6-8-3-5-6-5----------------------------------------------
E--4-6-------3--------------------------------------------


The Extremist
Veterano
# nov/05 · Editado por: The Extremist
· votar



e------------------------------------------------------
B------------------------------------------------------
G---3-5-7-8------------------------------------------------
D-6-3-5-7-8-5------------------------------------------------
A-6-1-3-5-6-5------------------------------------------------
E-4---------3--------------------------------------------


Na ordem que você pediu.

Fritz_mkvl
Veterano
# nov/05
· votar


The Extremist
Falei certo então?

Coxa
Veterano
# nov/05
· votar



e------------------------------------------------------
B------------------------------------------------------
G--------3----5---7---8-------------------------------
D---6----3----5---7---8---5--------------------------
A---6----1----3---5---6---5---------------------------
E---4---------------------3----------------------------



Ta na ordem que você pediu, Ab - Bb - Cm - D - Eb - G...

Obs:C5(power chord) não pode se dizer se esse acorde é maior ou menor pois ele não tem a terça do acorde, mas se você quiser um Cm seria:


e-------3----------------------------------------------
B-------4----------------------------------------------
G-------5----------------------------------------------
D-------5----------------------------------------------
A-------3----------------------------------------------
E------------------------------------------------------


The Extremist
Veterano
# nov/05
· votar


Fritz_mkvl

Não hehe

Olha lá agora. É que eu de cara já peguei os seus power-chords e mudei de posição, só depois que eu vi que tava errado

Coxa
Veterano
# nov/05 · Editado por: Coxa
· votar


e------------------------------------------------------
B------------------------------------------------------
G------------------------------------------------------
D-2-9-10-13-5-------------------------------------------------
A-2-9-10-13-5-------------------------------------------------
E-0-7-8--11-3------------------------------------------------



Acho.


É só afinar meio tom abaixo e fica certo( o La e o B) :D ehhee

[

The Extremist
Veterano
# nov/05
· votar


carolina martins

lembrando que vc pode tocar o power-chord de varias maneiras


e------------------------------------------------------
B------------------------------------------------------
G-------7--7---------------------------------------------
D-7--7--7--7-----------------------------------------------
A-5--5--5--5--5---------------------------------------------
E----5-----5--5-------------------------------------------


nettoroses
Prêmio FCC 2007
# nov/05
· votar


Coxa
ta errado

The Extremist
Veterano
# nov/05 · Editado por: The Extremist
· votar


Coxa

mas ae tinha que mudar as notas na tab ne =D

Eb, Ab, Db e talz

edit: aliás, mesmo assim vai ficar errado ¬¬

nettoroses
Prêmio FCC 2007
# nov/05
· votar


vcs vao endoidar a maloquera
digam certo

The Extremist
Veterano
# nov/05
· votar


Façam assim, deletem tudo e deixem apenas o meu post e o do Coxa, pq nós somos os líderes supremos dos power-chords

Coxa
Veterano
# nov/05
· votar


mas ae tinha que mudar as notas na tab ne =D

Eb, Ab, Db e talz

edit: aliás, mesmo assim vai ficar errado ¬¬


eauhaehua ta ta ta... foi só uma piadinha :(

Thedekai
Veterano
# nov/05 · Editado por: Thedekai
· votar


po
edita tablatura... deixa tudo torto
vo fazer de novo

carolina martins
Veterano
# nov/05
· votar


eu soh qro saber quem ta certo?

Minow
Veterano
# nov/05
· votar


conseguiram complicar a coisa mais simples do mundo

Gustavo_SX
Veterano
# nov/05
· votar


carolina martins

eu soh qro saber quem ta certo?

e------------------------------------------------------
B------------------------------------------------------
G---3-5-7-8------------------------------------------------
D-6-3-5-7-8-5------------------------------------------------
A-6-1-3-5-6-5------------------------------------------------
E-4---------3--------------------------------------------

Esse tá certo...

The Extremist
Veterano
# nov/05
· votar


carolina martins

O meu está certo.

carolina martins
Veterano
# nov/05
· votar


tipo naum tem como faze-los usando a 6º corda sempre em vez de fikar mudandu pra 5º?

Mister_Fatal_huhha
Veterano
# nov/05
· votar



e-------------------------------------------------------
B-------------------------------------------------------
G-------------------------------------------------------
D-6-8-10-12--13--5--------------------------------------
A-6-8-10-12--13--5--------------------------------------
E-4-6-8--10--11--3--------------------------------------

Ab-Bb-Cm-D-Eb-G

Sincero
Veterano
# nov/05 · Editado por: Sincero
· votar


e--------------------------------------------------------------------- ------------
B--------------------------------------------------------------------- ------------
G--------------------------------------------------------------------- ------------
D-6-----8-----10------12------13----------5--------------------------- - -------
A-6-----8-----10------12------13----------5--------------------------- - -------
E-4-----6-----8--------10------11----------3-------------------------- -----------
...Ab...Bb.....Cm......D.........Eb............G

Como no power chord não tá aparecendo a treça, ele pode ser tanto maior qto menor

Toki
Veterano
# nov/05
· votar


oi alguem pode me dize como fazer esse acordes em power chord
Ab - Bb - Cm - D - Eb - G


tipo naum tem como faze-los usando a 6º corda sempre em vez de fikar mudandu pra 5º?

Se fosse um homem (aliás, um nick masculino, pois não dá pra garantir nada assim) já teriam xingado muito.

kiltz
Veterano
# nov/05
· votar


Se fosse um homem (aliás, um nick masculino, pois não dá pra garantir nada assim) já teriam xingado muito

com ctz...

carolina martins
Veterano
# nov/05 · Editado por: carolina martins
· votar


pq teria xingado?

LOW Fl
Veterano
# nov/05
· votar


carolina martins
Sem esta querendo ser arrogante, você deveria aprender o que é Power Chord que é uma coisa bem simples. Basico do basico

sambabaka
Veterano
# nov/05
· votar


pra usa a quinta corda vc tenq abafa a sexta com o indicador ou com o dedo medio

seila
Veterano
# nov/05
· votar


carolina martins
como fazer esse acordes em power chord

qualquer 'power cord' é formado pela:
- Tônica, Quinta mais a Oitava;

as vezes usa-se somente a tônica e a quinta também.
tudo depende do efeito e 'do peso' da sonoridade.

Minow
Veterano
# nov/05
· votar


carolina martins
tipo naum tem como faze-los usando a 6º corda sempre em vez de fikar mudandu pra 5º?

ter tem. por exemplo o Si, vc pode fazer na segunda casa da quinta corda, ou na sétima do mizão.
lembre-se que pra achar uma nota na corda de baixo, ela vai estar 5 casas a frente.

mas nao acostuma nao, aprende a fazer os power chords em qualquer lugar e qualquer corda, eh uma coisa bem basica, tem q saber...

Minow
Veterano
# nov/05
· votar


Toki
Se fosse um homem (aliás, um nick masculino, pois não dá pra garantir nada assim) já teriam xingado muito.

discordo.
o pessoal ta aqui pra aprender. pergunte o que voce não sabe, e passe a saber.
a pessoa que xinga um dia teve que aprender power chords.

Enviar sua resposta para este assunto
        Tablatura   
 

Tópicos relacionados a como fazer power chord

290.121 tópicos 7.568.004 posts
Fórum Cifra Club © 2001-2014 Studio Sol Comunicação Digital