Notificações Amigos pendentes

      Fórum Cifra Club - maior fórum de m&uacite;sica do Brasil

      【FIXO】 Apostilas, Lições, Exercícios, Técnicas

      Autor Mensagem
      marcioazzarini
      Veterano
      # nov/04
      · votar


      moog

      Olha o sumidão aeh...

      moog
      Veterano
      # dez/04
      · votar


      marcioazzarini
      aeeeeee... beleza cara?? putz.. aconteceu muita coisa cara... mas logo mais to de volta no fórum com o pessoal ae.. saudades das "paltalk bass jam's" na madruga com a galera.. abraço pra vc e pro pessoal

      Genniffer
      Veterano
      # dez/04
      · votar


      Comprei um golden 5 cordas, a dois dias... e quero muito aprender a tocar... mais ainda não possuo professores... será que alguém poderia me dizer como começar?
      se no de 5 cordas é mais dificil ou mais facil?
      Se sem professor eu vou demorar a aprender?
      Se pra tocar rock n' roll é mais dificil?

      marcioazzarini
      Veterano
      # dez/04
      · votar


      Genniffer

      se no de 5 cordas é mais dificil ou mais facil?
      Não tem nada a ver... A dificuldade é a mesma.


      Se sem professor eu vou demorar a aprender?
      Isso depende do seu esforço, e de quanto tempo vc tem disponível para treinar.


      Se pra tocar rock n' roll é mais dificil?
      Pelo contrário... rock n' roll no baixo é mais fácil.

      Aconselho a você procurar pelas apostilas de iniciantes q estão disponíveis nos links deste tópico, e ir lendo com calma.

      Abraços!
      ___________________
      Marcio Azzarini
      http://www.marciobasspage.cjb.net
      http://www.polosopostos.cjb.net
      http://www.basspoint.cjb.net

      Rafael Soares
      Veterano
      # dez/04
      · votar


      Aí galera, sou novo no Fórum e preciso de umas dicas sobre algum método para leitura de partitura para Contra-Baixo.

      Agradeço a atenção...

      Rafael Soares
      Veterano
      # dez/04
      · votar


      Alguém tem algum material que fala sobre "chaves" em escalas musicais ?
      Tipo, Chave 1, 2, 3 , 4, 5, ...

      Obrigado !

      Thiago Correia
      Veterano
      # dez/04
      · votar


      Rafael Soares

      Vou colocar uma imagem de Partitura no e-mail walla... caso nao saiba oq eh isso de uma olhada aqui(eh um e-mial onde todos nos mandamos nossas coisas parar ele, pra compartilhar com outras pessoas do forum, tudo sobre contra-baixo)

      link:
      http://forum.cifraclub.com.br/forum/2/66633/

      Carlo Caricchio
      Veterano
      # jan/05
      · votar


      partindo do pensamento que as 'escalas " são uma só, so muda o ponto de inicio os modos podem ser ultilizados em qualquer tom?

      KendiRocks
      Veterano
      # jan/05
      · votar


      Gostaria de saber se campo harmonico menor é mesma coisa que escala menor. Além disso, como é a Escala Em, e a sua composição, ex: 1/2 tom...etc....

      Obrigado

      jkbass
      Veterano
      # jan/05
      · votar


      alô pessoal tem um site muito bom com lições de slap e muito mais, vídeos do m. miller, jaco, gary, etc.

      www.basslobster.com

      marcioazzarini
      Veterano
      # jan/05
      · votar


      jkbass

      Muito bom o site...

      Rafael Soares
      Veterano
      # jan/05 · Editado por: Rafael Soares
      · votar


      Galera, gostaria de saber onde as escalas no modo grego (Jônico, Dórico, Frígio, Lídio, Mixolídio, Eólio e Lócrio) são aplicadas na música.
      Elas são apenas execíciou ou tem aplicação real ?

      Muito obrigado !

      Caio safi
      Veterano
      # jan/05
      · votar


      Putz,eu num intendo nada dessas porra de cifra...alguem pode me explikr como eh q eh?

      Dreamchaser
      Veterano
      # mar/05 · Editado por: Dreamchaser
      · votar


      Caio safi

      Bem, basicamente ler cifras é assim:

      Usamos o mesmo sistema das partituras: divisão por compassos. No início da música vem o sinal indicador de compasso (2/4, 3/4, 4/4, 6/8, etc). O caractere "| " marca o início de cada compasso, e o ponto "." assinala cada tempo. Os acordes são, então, colocados sobre um desses sinais, conforme o momento em que ele deve ser tocado. Eventualmente, usamos a vírgula "," para indicar algum momento antes ou depois dos tempos regulares. São as síncopes, antecipações e retardos.

      Usamos também, mesmo nas músicas com letra, o sinal de repetição ||: :|| , para marcar trechos que são executados mais de uma vez.



      Ou como diz aqui mesmo no http://www.cifraclub.com.br/ => Teoria => como ler tablaturas:

      O conceito básico da tablatura é apresentar no papel um conjunto de linhas que representam as cordas do instrumento. Sendo assim para uma guitarra ou violão comum você terá seis linhas, para um baixo de quatro cordas terá quatro linhas, para um baixo de cinco cordas cinco linhas, para uma guitarra de sete cordas sete linhas e assim por diante. Geralmente nos exemplos mostrados aqui usaremos tablaturas de seis linhas para guitarra mas o principio é o mesmo para qualquer quantidade de cordas. Uma tablatura vazia de guitarra ou violão apresenta-se da seguinte forma:

      E------------------------------------------------------
      B------------------------------------------------------
      G------------------------------------------------------
      D------------------------------------------------------
      A------------------------------------------------------
      E------------------------------------------------------

      A linha de baixo representa a corda mais grossa (mi mais grossa) e a linha de cima representa a corda mais fina (mi mais fina). De cima para baixo as linhas representam as cordas mi, si, sol, re, la, mi.
      Uma tablatura vazia de baixo (quatro cordas) apresenta-se da seguinte forma:

      G------------------------------------------------------
      D------------------------------------------------------
      A------------------------------------------------------
      E------------------------------------------------------

      A linha de baixo representa a corda mais grossa (mi) e a linha de cima representa a corda mais fina (sol). De cima para baixo as linhas representam as cordas sol, ré, lá, mi.
      Números escritos nas linhas indicam em que traste as respectivas cordas devem ser apertadas ao serem feridas. Número 0 indica corda solta. As notas devem ser lidas da esquerda para a direita.

      E------------------------------------------------------
      B------------------------------------------------------
      G------------------------------------------------------
      D------------------------------------------------------
      A------------------------------------------------------
      E---0--1--2--3-----------------------------------------

      O exemplo acima indica as seguinte notas (uma de cada vez) na ordem:
      - corda mais grossa deve ser tocada solta (0)
      - depois a mesma corda deve ser tocada no primeiro traste (1)
      - depois a mesma corda deve ser tocada no segundo traste (2)
      - depois a mesma corda deve ser tocada no terceiro traste (3)


      Notações usadas em tablaturas

      Além dos números que apenas indicam qual corda deve ser ferida em qual casa (traste) existem algumas letras e símbolos comumente usadas para notar determinadas técnicas. Essas notações podem variar um pouco de autor para autor mas as mais comuns são:

      h - fazer um hammer-on
      p - fazer um pull-off
      b - fazer um bend para cima
      r - soltar o bend
      / - slide para cima (pode ser usado s)
      \ - slide para baixo (pode ser usado s)
      ~ - vibrato (pode ser usado v)
      t - tap
      x - tocar a nota abafada (som percusivo)

      Guto EADG
      Veterano
      # jul/05 · Editado por: Guto EADG
      · votar


      sai tudo torto =//
      alguem sabe como faco pra sair direito?
      (estou falando sobre as tablaturas sairem retinhas aqui, e nao como fazer os exercicios)

      Entao presses homi que pensam que nao tao ligado, vai uns exercicio de slap q ajudam muito....!!

      Exercicios de SLAP

      SLAP/POP
      Os exercicios abaixo sao nessa sequencia, thumb e depois o pluck na oitava da nota.
      Estao em semicolcheias. Não é celular mas é simples assim. :PPP


      G||------------------2-----3--|-----4-----5-----6-----7---||
      A||*-----5-----6--------------|--------------------------*||
      D||*--------------0-----1-----|--2-----3-----4-----5-----*||
      E||---3-----4-----------------|---------------------------||
      S P S P S P S P


      ------------4-----------5--|-----------7-----10-----9--|
      *-----5-----------7--------|-----9---------------------|
      *--------2-----------3-----|--------5-----8------7-----|
      ---3-----------5-----------|--7------------------------|



      -------------11-----9------12--|-----11-----9-----7-----4---||
      ------12-----------------------|---------------------------*||
      ----------9------7-----10------|--9------7-----5-----2-----*||
      --10---------------------------|----------------------------||



      ------------------4--------|---------------------------|
      *-----5-----7-----------5--|-----7-----9-----10-----7--|
      *--------------2-----------|---------------------------|
      ---3-----5-----------3-----|--5-----7-----8------5-----|



      ------------------7-----9--|--------------------------7---||
      -----9-----10--------------|-----10------12-----9--------*||
      ---------------5-----7-----|-----------------------5-----*||
      --7-----8------------------|--8------10------7------------||

      SLAP/POP/SLAP
      Aconselho para entender melhor o tempo, transportar as tablaturas para o Guitar PRO. (gerei os arquivos la entao nao havera problemas pra transportar)

      o tempo eh da seguinte forma: semicolcheia-colcheia-semicolcheia ....
      S P S



      ||-----5------7------8------9----|----10------8------7------6----|
      ||*------------------------------|-------------------------------|
      ||*--3----3-5----5-6----6-7----7-|--8-----8-6----6-5----5-4----4-|
      ||-------------------------------|-------------------------------|
      S P S


      ----5------3------2-----------|-----------3-------------------||
      -------------------------6----|----5-------------3------5----*||
      --3----3-1----1-0----0--------|---------1----1---------------*||
      -----------------------4----4-|--3----3--------1----1-3----3--||


      Aqui o tempo é colcheia-semicolheia-semicolcheia (estilo cavalgado)
      S P S


      -----5------7------8------9---|------------3-----------------|
      ------------------------------|-----5-------------3------5---|
      --3----3-5----5-6----6-7----7-|---------1----1---------------|
      ------------------------------|--3----3--------1----1-3----3-|
      S P S


      -----5------7------8------9---|------------3---------------|
      ------------------------------|-----5-------------5--------|
      --3----3-5----5-6----6-7----7-|---------1----1------3------|
      ------------------------------|--3----3--------3------2----|

      Aqui é semicolheia-semicolcheia-colcheia
      S P S


      -------------------------5----|------------------3------4----||
      ----3------3------5-----------|----6------6------------------||
      -----------------------3---3--|----------------1---1--2---2--||
      --1---1--1---1--3---3---------|--4---4--4---4----------------||

      S P S


      Slap/Pop/Pull-off

      O pull-off pra quem sabe é o 'ligado para trás'. Voce toca a nota com a mao direita, e depois somente com a mao esquerda tasca o dedo na outra indicada, fazendo-a soar assim, sem o ataque da mao direita.

      Aqui a sequencia é semicolcheia-semicolcheia-colcheia
      S P Pull-off

      ------------------------------|----3h1----3h1----3h1----5h3--|
      ----3h1----3h1----3h1----6h4--|------------------------------|
      ------------------------------|--1------1------1------3------|
      --1------1------1------4------|------------------------------|
      S P S P

      -------------------------2h0--|----3h1----4h2----5h3----5h3--|
      ----3h1----5h3----6h4---------|------------------------------|
      -----------------------0------|--1------2------3------3------|
      --1------3------4-------------|------------------------------|

      Apesar de estar marcado como 'h', sei que geralmente marcam o pull-off como p, mas o guitar pro gera assim, pra facilitar quem for transportar para o programa deixei dessa forma mesmo.

      Aquia sequencia é colcheia-semicolcheia-semicolcheia
      S P Pulloff

      ------------------------------|----3h1----3h1----3h1----5h3--|
      ----3h1----3h1----3h1----6h4--|------------------------------|
      ------------------------------|--1------1------1------3------|
      --1------1------1------4------|------------------------------|
      S P


      ------------------------------|-----5h3----5h3----8h6----8h6-|
      -----3h1----3h1----3h1----3h1-|------------------------------|
      ------------------------------|--3------3------6------6------|
      --1------1------1------1------|------------------------------|



      -----10h8----7h5---------------|-----3h1----5h3----5h3----3h1-|
      --------------------8h6----5h3-|------------------------------|
      --8-------5--------------------|---------3------3-------------|
      -----------------6------3------|--1--------------------1------|



      -----3h1----5h3----6h4----2h0-|-----3h1----4h2----5h3----5h3-||
      ------------------------------|------------------------------||
      ---------3------4------0------|--1------2------3------3------||
      --1---------------------------|------------------------------||

      Depois passo uns com o 'ligado pra frente'... feito aí, espero que aproveitem.

      Guto EADG
      Veterano
      # jul/05
      · votar


      bom, copiem e passem pro NOTEPAD com fonte fixedsys numero 9 q vai dar direitinho...

      Guto EADG
      Veterano
      # jul/05
      · votar


      pooo ponham esse topico no stick!! ele eh mto util pra ficar escondido dentro de outro topico!!!!

      HadeziN
      Veterano
      # jul/05
      · votar


      nsss...oia eu boiando..
      realmente aula faz grande falta

      Guto EADG
      Veterano
      # jul/05
      · votar


      Voce toca a nota com a mao direita, e depois somente com a mao esquerda tasca o dedo na outra indicada, fazendo-a soar assim, sem o ataque da mao direita.
      ahhh da pra fazer assim tambem, voce poe os dois dedos nas duas notas por exemplo fazer um pull off do Bb (casa 3 da corda G) pro C (casa 5 da corda G) coloca os dois dedos um em cada nota, e toca com a mao direita e rapidamente tira o dedo da casa 5 fazendo a entonacao baixar. mas eu prefiro do outro jeito.... vai soar igual é soh saber fazer....

      moog
      Veterano
      # jul/05
      · votar


      pooo ponham esse topico no stick!! ele eh mto util pra ficar escondido dentro de outro topico!!!!


      ja esteve por mto tempo... tiraram.. num sei pq...

      thebassx
      Veterano
      # jul/05
      · votar


      fixem esse topico, senhores moderadores!!!!!!

      thebassx
      Veterano
      # jul/05
      · votar


      Guto EADG
      oww.. mto bom esse troço aí

      thebassx
      Veterano
      # jul/05
      · votar


      eu vou dar um post por minuto fazendo assim com q esse topico apreça estar fixo.

      thebassx
      Veterano
      # jul/05
      · votar


      agora virou questao de honra deixar este topico fixo.

      thebassx
      Veterano
      # jul/05
      · votar


      esse topico fixo faria com q mtos topicos inuties nao fossem criados

      thebassx
      Veterano
      # jul/05
      · votar


      pq ninguem entra no Topicos Essencias para o forum de contrabaixo

      thebassx
      Veterano
      # jul/05
      · votar


      alias, eu AMO tocar contrabaixo =)))

      thebassx
      Veterano
      # jul/05
      · votar


      eu sei q tem gente q tem mto material bom pra postar aqui mas nao posta de egoista. ou de preguiça.

      thebassx
      Veterano
      # jul/05
      · votar


      quem quer esse topico fixo levanta a mao o/

      thebassx
      Veterano
      # jul/05
      · votar


      toca aqu!
      \o_ \o

      \o) \o

      deixa q eu toco sozinho!

      Enviar sua resposta para este assunto
              Tablatura   
      Responder tópico na versão original
       

      Tópicos relacionados a 【FIXO】 Apostilas, Lições, Exercícios, Técnicas

      302.824 tópicos 7.837.879 posts
      Fórum Cifra Club © 2001-2017 Studio Sol Comunicação Digital