Fórum Cifra Club - maior fórum de m&uacite;sica do Brasil

【FIXO】 Apostilas, Lições, Exercícios, Técnicas

Autor Mensagem
mabaixo
Veterano
# mai/04
· votar


tipo vou colokar aki um exemplo.

o arpejo gerado, o acorde e o modo para cada grau do campo harmonico partindo do jonio é claro, o exemplo esta na tonalidade de C falow...

acorde

C7
G.....4....
A.....2....
D.....3....
E..........

arpejo

G...............4.
A.............5...
D.....3...7.......
E.................


jonio (modelo aberto)

G..........................4..5..
A...............3...5...7........
D.....3..5..7....................
E................................

mabaixo
Veterano
# mai/04
· votar


corrigindo

o acorde e C7M ==> dó com sétima maior blza...

mabaixo
Veterano
# mai/04
· votar


acorde

Dm7

G.....5....
A.....2....
D.....5....
E..........

arpejo

G...............5.
A.............7...
D.....5...8.......
E.................


dórico (modelo aberto)

G..........................5..7..
A...............5...7...9........
D....5...7..8....................
E................................

mabaixo
Veterano
# mai/04
· votar


correção de novo rs

Dm7 ==> ré menor com sétima da dominante

G.....5....
A.....3....
D.....5....
E..........

mabaixo
Veterano
# mai/04
· votar


acorde

Em7

G.....7....
A.....5....
D.....7....
E..........

arpejo

G.................7.
A.............9...
D.....7...10.......
E.................


frigio

G...........................7..9..
A...............7...9...10........
D....7...8..10....................
E.................................

mabaixo
Veterano
# mai/04
· votar


acorde

F7M

G.....9....
A.....7....
D.....8....
E..........

arpejo

G.................9.
A.............10....
D.....8...12........
E...................


lídio

G...........................9..10..
A...............9...10...12........
D....8...10..12....................
E..................................

mabaixo
Veterano
# mai/04
· votar


para melhor visualização ok

arpejo

G.....................9.
A...............10......
D.....8....12...........
E.......................


lídio

G................................9..10..
A..................9...10...12.........
D....8...10..12........................
E......................................

mabaixo
Veterano
# mai/04
· votar


acorde

G7 ==> sol com sétima da dominante

G.....10....
A.....9....
D.....10....
E..........

arpejo

G.......................10.
A..................12......
D.....10....14.............
E..........................


mixolídio (modelo aberto)

G..................................10...12..
A...................10...12...14............
D.....10..12..14............................
E...........................................

mabaixo
Veterano
# mai/04
· votar


acorde

Am7

G.....12....
A.....10....
D.....12....
E..........

arpejo

G.......................12.
A................14........
D.....12...15..............
E..........................


eólio

G..................................12..14..
A...................12...14...15...........
D.....12..14..15...........................
E..........................................

mabaixo
Veterano
# mai/04
· votar


acorde

Bm7(5b) ==> sí menor com sétima e quinta diminuta

G.....14....
A.....15....
D.....14....
E..........

arpejo

G.......................14.
A................15........
D.....14...17..............
E..........................


eólio

G..................................14..16..
A...................14...15...17...........
D.....14..15..17...........................
E..........................................

Tobias da Silva
Veterano
# mai/04
· votar


mabaixo

Cara, to precisando de uma lição completa, desde técnicas, teorias, etc...
Preciso para um amigo meu, se tiver, poste passando o endereço (aqueles que estão no inicio do tópico não são muito bons, não importando se é em inglês)

Falow![b][/b]

mabaixo
Veterano
# mai/04
· votar


Tobias da Silva

tipo tbm num conheço nenhum site q tenha uma visão geral de tudo, a maioria so dao uma pincelada basica, e geralmente dos mesmos assuntos...

por isso até to kolokando essas informações aki, e o melhor mesmo é ir pegando as koisas com calma um pouco de cada vez para entender senau mistura tudo e o kara acaba se confundindo mais ainda...

Homaley
Veterano
# mai/04
· votar


mabaixo


Cara, parabéns pela disponibilidade e paciência em estar ensinando a todos; mas não seria:

G---------------
D---------------
A---------------
E---------------

mabaixo
Veterano
# mai/04
· votar


Homaley


soh soh, criei esse padrão no bloco de notas p kola aki, no meio da correria, trampo, fone, cliente, msn nem me liguei q tinha fikado invertido rssssss, boa....


hora q ve tem neguinho, trokando as cordas do bass ou mudando a afinação heahaheheahahaehaeae....

valeu!!!

powerbass
Veterano
# jun/04
· votar


Marco Darhouni

da uma olhada ai em cima.
ou aki
http://www.mvhp.com.br/baixo.htm

Nibbs
Veterano
# jun/04
· votar


Bem pesssoal achu que a maioria deve conhecer a musica
Evil Warning do Angra estou certo?
Logo que eu comecei a estudar baixo eu resolvi tirar esta musica(que na minha opinião é uma das melhores), e vou passar uma parte da musica em que o mariutti executa a parte
de tapping.Eu pessoalmente encaro esta parte da musica como
um exercicio de tapping pois naum é tão facil de se executar
Aí vai ela.......

Nibbs
Veterano
# jun/04
· votar



G-------t7-----t7-----------------------------------
D-----t7-----t7-----t7----4x------------------------
A---5-----5-----5-----------------------------
E--------------------------------------------------


G----------t5-----t5--------------------------------
D--------t5-----t5----t5--2x------------------------
A------3-----3-----3--------------------------------
E---------------------------------------------------

G---------------------------------------------------
D-------t7-----t7-------------------------------------
A-----t7-----t7-----t7----1x-------------------------
E---5-----5-----5-------------------------------

G---------------------------------------------------
D-------t8-----t8-----------------------------------
A-----t8-----t8-----t8- 1x----------------------------
E---6-----6-----6-----------------------------------
       t   t   t   t   t

G----------10141015101410151014-------------------
D-------t12------------------------t12--------------
A----t12------------------------------t12-----------
E-10------------------------------------------------
       t   t   t   t   t   t

G----------101410151014101510141015-----------------
D-------t12------------------------------------------
A----t12---------------------------------------------
E-10------------------------------------------------

G-9-------9-------9----9----------------------------
D------t10------t10-----------2x----------------------
A---t10------t10------t10------------------------------
E---------------------------------------------------

G-5-----5-----5---5----7-------7----- 7------------
D-----t7-----t7------------t8-----t8--------------------
A---t7-----t7-----t7------t8-----t8-----t8-------5
E---------------------------------------------------

espero ter colaborado :)

Nibbs
Veterano
# jun/04
· votar


Ops, esqueci de por um espaço entre as linhas
pule a marcação entre E e G....

Diego Wilde Rodrigues
Veterano
# jul/04
· votar


aí alguem sabe onde pode acha exercícos de velocidade

thiagoangelin
Veterano
# jul/04
· votar


Alguém sabe onde encontro vídeo-aulas em CD-ROM barato em belo horizonte? Talvez algum de vcs tenham e possamos trocar...

Ricardo Lourenco
Veterano
# jul/04
· votar


Este site tem uns demo de MP3 muito legal. Vale apena conferir.

http://www.claudiojardim.com/

marcioazzarini
Veterano
# set/04
· votar


Cara do Metal
Visite os sites na primeira página deste tópico, pq lá tem muita coisa útil.

Abraços!
___________________
Marcio Azzarini
http://www.marciobasspage.cjb.net
http://www.polosopostos.cjb.net
http://www.basspoint.cjb.net

samsbass
Veterano
# set/04
· votar


Pessoal,
estarei em breve divulgando um material para quem quer treinar velocidade. Fiquem ligados. Blz?

Valeu!

Sds.

baz
Veterano
# out/04
· votar


já tô aproveitando as dicas..claro que google as vezes também dá certo.
mas ia pedir uma coisa, se alguém tiver... gostaria de obter as fórmulas das escalas naquele esquema tom, semi-tom, semi-tom, tom, etc...
seria útil, obrigado ;D

Wémerson Uchôa
Veterano
# out/04
· votar


Tenho um material muito bom pena que não tô com ele no momento. Pretendo em breve disponibilizar a todos vocês...

klango
Veterano
# nov/04
· votar


Galera estou começando e gostaria de entender essas sequencias.

------------------------------------
-----------------------------4------
-------4--------5--4--7--5-------7--
---5-------7------------------------
O que significa os números? eu pensei que era as casas do baixo, mas neste modelo tem um 4 depois do 5 e logo em seguida um 7 então vi que não é a casa como é que funciona isso.

desde já agradeço

paulombraga
Veterano
# nov/04
· votar


Será que alguem pode postar uns licks prontos( temas) pra executar entre os intervalos de uma musica que está nessa sequencia?Eu já a´te tenho alguns, mas queria fazer algo diferente do meu estilo. Essa musica é mais lenta, estilo balada...

C Dm7 F G C F Dm G C

marcioazzarini
Veterano
# nov/04
· votar


klango

Os traços horizontais representam as cordas do baixo, e os números representam qual casa da respectiva corda vc deverá pressionar.

A sequencia das cordas é esta:


G------------------------------------------------------
D------------------------------------------------------
A------------------------------------------------------
E------------------------------------------------------


Abraços

bassendbass
Veterano
# nov/04
· votar


Quanto a nomenclatura dos modos, o correto é Gregoriano, pois vem do nome de seu criador, o papa Gregório, (canto gregoriano), qto ao Grego, o correto é ecalas gregas, são escalas desenvolvidas na Grécia.

moog
Veterano
# nov/04
· votar


se o apostilasmoog.tk naum estiver abrindo, tente
www.geocities.com/soldatbrasil
é o mesmo site

Enviar sua resposta para este assunto
        Tablatura   
 

Tópicos relacionados a 【FIXO】 Apostilas, Lições, Exercícios, Técnicas

289.023 tópicos 7.543.108 posts
Fórum Cifra Club © 2001-2014 Studio Sol Comunicação Digital