Fórum Cifra Club - maior fórum de m&uacite;sica do Brasil

Exercícios de velocidade para baixo

Autor Mensagem
mabaixo
Veterano
# abr/04 · Editado por: Moderador


Ae galerinha, nos ultimos dias aki no fórum só tem se falado em velo e agilidade, vou colocar aki entaun uns exercicios pra galera q da começando e quer melhorar nesse sentido falow...

Abaixo estão alguns exercícios para velocidade, de inicio pratique lentamente, sem parar, de forma que o som das notas sejam limpos, e comece a aumentar a velocidade aos poucos. de preferencia usando um metronomo, senau batendo o pé p marcar o compasso...

[T]
Exercício 1
G||-----------5----------------5-------------------------|
D||--5--6--8----8--6--5--6--8-----8--6--5----------------| A||------------------------------------------------------| E||------------------------------------------------------|
[/T]


[T]
Exercício 2
G||-----------4--------3-----|--------2--8--------7--0--| D||--------2--------1--------|-----2-----------6--------|
A||-----1--------0-----------|--0-----------5-----------|
E||--0-----------------------|--------------------------|
[/T]

[T]
--6--5--5--6-----7--------|--8-----------3-----------|
--------------5-----6-----|-----7-----------3--------|
-----------------------5--|--------6-----------1-----|
--------------------------|-----------5-----------0--|
[/T]

[T]
--4-----------------------|--------------------||
-----2--------3-----------|--------------------||
--------1--------2-----3--|--------------------||
-----------0--------1-----|--2--3--------------||
[/T]

[T]
Exercício 3
G||--------------------------|-----0--1--3-------------|
D||-----------------------0--|--2----------------------|
A||--------------0--2--4-----|-------------------------|
E||-----0--2--3--------------|-------------------------|
[/T]

[T]
--------------------------|-----0--1--3--------------|
-----------------------0--|--2-----------------------|
--------------0--2--4-----|--------------------------|
-----0--2--3--------------|--------------------------|

--7--8--10--12--14--15------||
----------------------------||
----------------------------||
----------------------------||
[/T]

mabaixo
Veterano
# abr/04
· votar


puts kara nun sei q deu montei certinho aki quando envie ficou essa bosta ae encima!!! hehe, misturo tudo...

vou tentar mandar um por vez caso contrario hospedo em algum lugar e coloco um link falow...

essa foi boa rsssss!!!

mabaixo
Veterano
# abr/04
· votar


Exercício 1
G||-----------5----------------5-------------------------| D||--5--6--8----8--6--5--6--8-----8--6--5----------------| A||------------------------------------------------------| E||------------------------------------------------------|

mabaixo
Veterano
# abr/04
· votar


mesma bosta...

hehe, vou colocar la nas bass point e o
link aki blza!!!

maggie
Veterana
# abr/04
· votar


mabaixo
Parece que estamos com problemas nas tablaturas..
:|

OffBass
Veterano
# jan/09 · Editado por: OffBass
· votar


mto dificil modelar tab pra postar aqui...

Enviar sua resposta para este assunto
        Tablatura   
 

Tópicos relacionados a Exercícios de velocidade para baixo

290.152 tópicos 7.569.158 posts
Fórum Cifra Club © 2001-2014 Studio Sol Comunicação Digital