Fórum Cifra Club - maior fórum de m&uacite;sica do Brasil

CURSO PRÁTICO DE CONTRABAIXO

Autor Mensagem
Edson Sousa
Veterano
# nov/03 · Editado por: Edson Sousa


CURSO PRÁTICO DE CONTRABAIXO AULA 1

Aí galera, essa foi a melhor forma que achei para publicar informações que tenho aprendido sobre prática de contrabaixo.

Já enviei e-mails para o cifraclub, querendo publicar coisas boas para a coluna você dá a aula, mas não publicaram, então aí vai a aula 1.

pagode alto astral
Veterano
# nov/03
· votar


..........

Edson Sousa
Veterano
# nov/03 · Editado por: Edson Sousa
· votar


CURSO PRÁTICO DE CONTRABAIXO AULA 1


1. ESCALAS

1.1. Escala Maior

A escala maior pode ser aplicada sobre os acordes:
X7M ou X7+ ou Xmaj7; X6; X6(9); X(add9) ou X9


Escala de Dó Maior:

G-----------------2--4--5--7--5--4---------------------
D--------2--3--5--------------------7--5---------------
A--3--5-----------------------------------8--7--5------
E--------------------------------------------------8---
....2..4..1..2..4..1..3..4..4..2..1..4..1..4..3..1..4


Escala de Mi Maior:

G-----------------------------1--2--4--6--8--9--8--6---
D--------------------1--2--4---------------------------
A-----------0--2--4------------------------------------
E--0--2--4---------------------------------------------
....0..2..4..0..2..4..1..2..4..1..2..4..1..3..4..3..1

G------------------------------------------------------
D--9--7--6---------------------------------------------
A-----------9--7--6--4---------------------------------
E-----------------------7--5--4--2--0------------------
....4..2..1..4..2..1..1..4..2..1..1..0


Escala de Lá Maior
G--------------------1--2--4--6--7--6--4---------------
D-----------0--2--4-----------------------7--6--4------
A--0--2--4-----------------------------------------7--5
E------------------------------------------------------
....0..2..4..0..2..4..1..2..4..3..4..3..1..4..3..1..4..2

G------------------------------------------------------
D------------------------------------------------------
A--4---------------------------------------------------
E-----7--5---------------------------------------------
....1..4..2


Escala de Sol Maior em duas oitavas:

G----------------------------------------9--11--12-----
D--------------------4--5--7--9--10--12----------------
A--------2--3--5--7------------------------------------
E--3--5------------------------------------------------
....2..4..1..2..2..4..1..2..4..1...2...4..1...3...4


Obs1.: Toque as escalas na forma ascendente e descendente.

Obs2.: Pratique em todos os tons, se quiser siga essa ordem: C, F, Bb, Eb, Ab, Db, F#, B, E, A, D, G.

Você não pode enviar mensagens, pois este tópico está fechado.
 

Tópicos relacionados a CURSO PRÁTICO DE CONTRABAIXO

290.209 tópicos 7.570.804 posts
Fórum Cifra Club © 2001-2014 Studio Sol Comunicação Digital