Notificações Amigos pendentes

      Fórum Cifra Club - maior fórum de m&uacite;sica do Brasil

      Exercicios de agilidade para contrabaixo

      Autor Mensagem
      Barba Negra
      Veterano
      # abr/06


      Exercícios para aquecimento e maior agilidade dos dedos.

      Aconselho que se faça esses exercícios durante 15 dias, uma hora por dia. O resultado é muito bom. Depois dos 15 dias os dedos vão deslizar no braço.
      Deve ser feito bem devagar e ir aumentando a velocidade. De preferência, use um metrônomo.

      --------------------------------------------------------------1---2---3---4-----------------------------------------------------------------
      ------------------------------------------1---2---3---4-------------------------1---2---3---4---------------------------------------------
      ----------------------1---2---3---4-----------------------------------------------------------------1---2---3---4-------------------------
      --1---2---3---4---------------------------------------------------------------------------------------------------------1---2---3---4-----


      --------------------------------------------------------------1---2---4---3-----------------------------------------------------------------
      ------------------------------------------1---2---4---3-------------------------1---2---4---3---------------------------------------------
      ----------------------1---2---4---3-----------------------------------------------------------------1---2---4---3-------------------------
      --1---2---4---3---------------------------------------------------------------------------------------------------------1---2---4---3-----


      --------------------------------------------------------------2---3---4---1-----------------------------------------------------------------
      ------------------------------------------2---3---4---1-------------------------2---3---4---1---------------------------------------------
      ----------------------2---3---4---1-----------------------------------------------------------------2---3---4---1-------------------------
      --2---3---4---1---------------------------------------------------------------------------------------------------------2---3---4---1-----


      --------------------------------------------------------------3---4---2---1-----------------------------------------------------------------
      ------------------------------------------3---4---2---1-------------------------3---4---2---1---------------------------------------------
      ----------------------3---4---2---1-----------------------------------------------------------------3---4---2---1-------------------------
      --3---4---2---1---------------------------------------------------------------------------------------------------------3---4---2---1-----


      --------------------------------------------------------------4---3---2---1-----------------------------------------------------------------
      ------------------------------------------4---3---2---1-------------------------4---3---2---1---------------------------------------------
      ----------------------4---3---2---1-----------------------------------------------------------------4---3---2---1-------------------------
      --4---3---2---1---------------------------------------------------------------------------------------------------------4---3---2---1-----


      --------------------------------------------------------------1---3---2---4-----------------------------------------------------------------
      ------------------------------------------1---3---2---4-------------------------1---3---2---4---------------------------------------------
      ----------------------1---3---2---4-----------------------------------------------------------------1---3---2---4-------------------------
      --1---3---2---4---------------------------------------------------------------------------------------------------------1---3---2---4-----


      --------------------------------------------------------------2---4---1---3-----------------------------------------------------------------
      ------------------------------------------2---4---1---3-------------------------2---4---1---3---------------------------------------------
      ----------------------2---4---1---3-----------------------------------------------------------------2---4---1---3-------------------------
      --2---4---1---3---------------------------------------------------------------------------------------------------------2---4---1---3-----




      FBassist
      Veterano
      # abr/06
      · votar


      muito boa a iniciativa! continue assim!

      kan
      Veterano
      # abr/06
      · votar


      Muito bom. Valeu!

      rcardo_lemos
      Veterano
      # abr/06 · Editado por: rcardo_lemos
      · votar


      Tem um q acho legal, q eu meio q "fiz" (retirei de musicas do Symphony X) q eh assim:


      e------------------------------------------------------
      B------------------------------------------------------
      G------------------------------------------------------
      D----------5------------------9------------------------
      A--5-8-7-8---8-7-8--7-10-9-10---10-9-10----------------
      E------------------------------------------------------ etc..


      Saca? Aí vc vai fazendo tds os modos ou como vc quiser... e por todo o braço


      e------------------------------------------------------
      B------------------------------------------------------
      G------------------------------------------------------
      D------------------------------------------------------
      A-4-2-1---2-1-----1------------------------------------
      E-------3-----3-2---3-2-0-3-2-0-2---------------------- msm coisa


      Eh bom pra soltar os dedos em coisas complicadas.... e bom pra aquecer (principalmente o 1o)

      Sei lah qual mais

      Renato Dell
      Veterano
      # abr/06
      · votar


      Façam com 1-2-3-4, 2-1-3-4, 3-1-2-4-, 4-1-2-3, 2-3-4-1...
      Por aí vai

      Barba Negra
      Veterano
      # abr/06
      · votar


      Legal cara gostei....

      L3Bass
      Veterano
      # abr/06
      · votar


      salientando que nesses exercícios seria muito bom nos primeiros dias (antes de aumentar a velocidade dos exercícios) executar as notas falando os nomes delas (para memorização ampla das casas). Vlw abraços

      Alastico
      Veterano
      # abr/06
      · votar


      e usar metronomo SEMPRE..=)...eh mto bom pra se organizar durante os estudos e manter seu ritmo sempre...nao exagerar e tals..

      Renato Dell
      Veterano
      # abr/06
      · votar


      e usar metronomo SEMPRE..
      SEMPRE que tiver bateria e não quiser ficar batendo o pé

      ROBINHOBASS
      Veterano
      # abr/06
      · votar


      eu acho legal mesclar o 1234+1243, 1234+1324,1234+1342... e por aí vai

      Caio Cesar SS
      Veterano
      # dez/08
      · votar


      aprendendo agora enquanto não faço aula posso fazer isso... obrigado!

      Carlosbassfeeling
      Membro Novato
      # 09/jan/17 14:19
      · votar


      Esses exercícios são muito bons ! obrigado

      alan.bassplayer
      Membro Novato
      # 09/jan/17 16:05
      · votar


      Carlosbassfeeling
      Tópico parado desde dezembro de 2008. Preste atenção nisso para evitar constrangimento ;-)

      Neitan_Bass
      Membro Novato
      # há 16 horas
      · votar


      Bom galera, meu professor de música me passou um exercício pra agilidade muito bom. Vou tentar passar pra vocês aqui.
      DESCENDO
      --------------------------------------------------------------1---4--- 2---3--
      ------------------------------------------1---3---4---2--------------- -------
      ----------------------1---3---2---4----------------------------------- -------
      --1---2---3---4------------------------------------------------------- -------

      SUBINDO

      --------------------------------------------------------------1---4--- 2---3--
      ------------------------------------------2---4---3---1--------------- -------
      ----------------------4---2---3---1----------------------------------- -------
      --1---2---3---4------------------------------------------------------- -------



      Ps: desculpem está ressuscitando o tópico kk

      Enviar sua resposta para este assunto
              Tablatura   
      Responder tópico na versão original
       

      Tópicos relacionados a Exercicios de agilidade para contrabaixo

      301.843 tópicos 7.821.965 posts
      Fórum Cifra Club © 2001-2017 Studio Sol Comunicação Digital