Notificações Amigos pendentes

      Fórum Cifra Club - maior fórum de m&uacite;sica do Brasil

      Duvida - Como improvisar em Si Fumol?

      Autor Mensagem
      Dogs2
      Veterano
      # out/05
      · votar


      Como improvisar em Si Fumol?

      Si Fudendo

      Deji
      Veterano
      # out/05
      · votar


      Dogs2
      filho duma vad1a

      Dogs2
      Veterano
      # out/05
      · votar


      Deji
      huhauahauahua
      relaxa

      Deji
      Veterano
      # out/05
      · votar


      Dogs2

      huahau, sabia que vc me zuou no meu primeiro post a um ano atraz?

      Deji
      Veterano
      # dez/05
      · votar


      Teoria sobre si fumol, fu simol e do abimolado.

      http://gsd.ime.usp.br/acmus/publi/textos/14_arakawa.pdf

      Zakk Wylde_
      Veterano
      # dez/05
      · votar


      Consulta o Manual do Shedder Mirim - Beto Guedes 2005, que ele irá estar te auxiliando

      BlacK Dog
      Veterano
      # fev/06
      · votar


      e---25---26----------------------------------------------
      
      B------------27---28-------------------------------------
      G---------------------30---------------------------------
      D--------------------------35----------------------------
      A------------------------------00------------------------
      E----------------------------------oi--------------------



      hahauhaua


      tinha que upar. :P

      NoAlarms
      Veterano
      # fev/06
      · votar


      Si Rose

      The Splinters
      Veterano
      # fev/06
      · votar


      Fu Simol é mais imponente. \m/

      The Splinters
      Veterano
      # fev/06
      · votar


      oi--------------------
      eauheauhaeuhaeuheauheauhuaehuhae!!

      Brunorocker
      Veterano
      # fev/06
      · votar


      e---25---26----------------------------------------------
      B------------27---28-------------------------------------
      G---------------------30---------------------------------
      D--------------------------35----------------------------
      A------------------------------00------------------------
      E----------------------------------Tóin!-----------------

      Deji
      Veterano
      # fev/06
      · votar


      maggie
      oi

      kohler1000
      Veterano
      # dez/08
      · votar


      Como improvisar em Si Fumol?

      Si Fudendo


      HAUHAIAUIHAUIH

      mas e quando e um Lá Distendido?

      james_the_bronson
      Veterano
      # dez/08
      · votar


      kohler1000

      Modo fálico suspendido...

      Dogs2
      Veterano
      # dez/08
      · votar


      james_the_bronson
      Modo fálico suspendido...

      Esse é o modo da música Erection do Van Halen

      james_the_bronson
      Veterano
      # dez/08
      · votar


      Dogs2

      Executada com a famosa técnica do dick picking...

      Rafael Walkabout
      Veterano
      # dez/08
      · votar


      Dylon e a técnica "No Hands".

      kohler1000
      Veterano
      # dez/08
      · votar


      Rafael Walkabout
      técnica "No Hands".

      Essa técnica ai só quem é capaz de executar é o Mestre Chimbinha

      Fahrenheit
      Veterano
      # dez/08
      · votar


      Rafael Walkabout
      Dylon e a técnica "No Hands".

      Puta que pariu....uahuahauhauhauhauhauhauhauhauhauhaua

      Dogs2
      Veterano
      # dez/08
      · votar


      Fahrenheit
      nossssaaa
      vai me falar que agora que vc ouviu isso aehiuAEHIUEAhea

      Fahrenheit
      Veterano
      # dez/08
      · votar


      Dogs2

      Foi.

      =(


      Te adoro ó ;**

      Dogs2
      Veterano
      # dez/08
      · votar


      Fahrenheit
      hauahuhuahua doente

      james_the_bronson
      Veterano
      # dez/08
      · votar


      Fahrenheit

      Aí, olha que legal. É a nova sensação da internet:



      Fahrenheit
      Veterano
      # dez/08
      · votar


      james_the_bronson

      Valeu, também não conhecia!

      \o/

      kohler1000
      Veterano
      # dez/08
      · votar


      james_the_bronson

      uiHAUIHAIuhAIUHA, genial!!! primeira vez que eu vejo isso

      [/efeitos do tapa nosso de cada dia]

      Dogs2
      Veterano
      # dez/08
      · votar


      kohler1000
      genial!!

      multi do Walkabout

      Headstock invertido
      Veterano
      # dez/08
      · votar


      Para improvisar decentemente em Si Fumol deve-se aplicar corretamente a escala de Fu Simol, é a única que se encaixa.

      guitarrista_rock
      Veterano
      # dez/08
      · votar



      E---25---26----------------------------------------------
      B------------27---28-------------------------------------
      G---------------------30---------------------------------
      D--------------------------35----------------------------
      A------------------------------00------------------------
      E----------------------------------pum-------------------


      Villts
      Veterano
      # 04/set/17 20:32
      · votar


      belo tópico.

      LeandroP
      Moderador
      # 04/set/17 20:36
      · votar



      e------------------------------------------------------
      B------------------------------------------------------
      G------------------------------------------------------
      D------------------------------------------------------
      A------------------------------------------------------
      E------------------------------------------------------
      let ring............................................


      Enviar sua resposta para este assunto
              Tablatura   
      Responder tópico na versão original
       

      Tópicos relacionados a Duvida - Como improvisar em Si Fumol?

      303.741 tópicos 7.860.050 posts
      Fórum Cifra Club © 2001-2017 Studio Sol Comunicação Digital