Notificações Amigos pendentes

      Fórum Cifra Club - maior fórum de m&uacite;sica do Brasil

      Duvida - Como improvisar em Si Fumol?

      Autor Mensagem
      Deji
      Veterano
      # out/05


      Mentira, só pra gastar o tópico mesmo.

      BlaCk LaBeL
      Veterano
      # out/05
      · votar


      A escala de Si Fumol Bequadro Hexolíptica é uma que cai bem.

      Deji
      Veterano
      # out/05
      · votar


      BlaCk LaBeL
      A escala de Si Fumol Bequadro Hexolíptica é uma que cai bem.

      Poxa cara, essa Hexolíptica é essa aqui?


      e---34--12--15--22-------------------------------------------
      B---124---17--------------------------------------------
      G-----------32---55----------------------------------------
      D-------------------2--55---------------------------------
      A-------------------------35--252---------------------------
      E---------------------------------10215-------------------


      heathcliff
      Veterano
      # out/05
      · votar



      e------------------------------------------------------
      B------------------------------------------------------
      G---5~~~~~~~~------------------------------------------
      D------------------------------------------------------
      A------------------------------------------------------
      E------------------------------------------------------


      Marisco
      Veterano
      # out/05
      · votar


      Deji
      Não, é essa é a de semi-tons inteiros aumentados...

      HyperViruz
      Veterano
      # out/05
      · votar



      e-x-----x--x-x-x---------------------------------------
      B--x---x-----------------------------------------------
      G---x-x----------x-------------------------------------
      D----x------------x-x~~~~~~----------------------------
      A------------------------------------------------------
      E------------------------------------------------------


      Marisco
      Veterano
      # out/05
      · votar


      Agora respondendo a pergunta:

      Use a escala de Zi Sustinido. É puro philing!

      LeandroP
      Moderador
      # out/05 · Editado por: LeandroP
      · votar


      Experimente os modos plácidos, flácidos e homogênios.

      Este tópico vai para o OT

      Deji
      Veterano
      # out/05
      · votar


      Este tópico vai para o OT

      :(

      Alexandre Souza
      Veterano
      # out/05
      · votar


      Deji
      man, ninguem improsiva em si fumol igual ao gustavo macaco...
      esse sim sabe tudo

      HyperViruz
      Veterano
      # out/05
      · votar


      usem a escala de Ré Nôkibe, é boa pra akeles gritinhos na guitarra

      Deji
      Veterano
      # out/05
      · votar


      http://forum.cifraclub.com.br/forum/3/102792/

      Deji
      Veterano
      # out/05
      · votar


      usem a escala de Ré Nôkibe, é boa pra akeles gritinhos na guitarra

      isso aí é com o Gustavo Guerra

      Space Ace
      Veterano
      # out/05
      · votar


      escala si fumol

      e---------------------20--------------------------------
      B-----------------2------------------------------------
      G-------------17------------12---------------------------
      D---------3---------------------4----------------------
      A-----22----------------------------9-------------------
      E-1------------------------------------22--------------


      LOW Fl
      Veterano
      # out/05
      · votar


      Deji
      veio parar no OT. kaakakkaa

      Mah Pezzoa
      Veterano
      # out/05
      · votar


      dixava enrrola e fuma!

      Deji
      Veterano
      # out/05
      · votar


      LOW Fl
      :s

      LOW Fl
      Veterano
      # out/05
      · votar


      Ainda acho que a escala Puntatonia dá que é uma beleza pra Si Fumol

      Alexandre Souza
      Veterano
      # out/05
      · votar


      SI Fumol

      e---25---26----------------------------------------------
      B------------27---28-------------------------------------
      G---------------------30---------------------------------
      D--------------------------35----------------------------
      A------------------------------00------------------------
      E----------------------------------oi--------------------


      Deji
      Veterano
      # out/05
      · votar


      E----------------------------------oi--------------------

      huahauahuahuhau

      maggie
      Veterana
      # out/05
      · votar


      Si Fumol
      ehehehe

      spainEL
      Veterano
      # out/05 · Editado por: spainEL
      · votar


      haha

      Ou você pode usar uma inversão, que seria o Fu Simol... Ou a escala oriental do Leste da Sumatra, muito utilizada para embalar a cópula dos Coalas albinos...

      Eder ST80
      Veterano
      # out/05
      · votar


      Mais um tentando ser macaco

      EduArdanuy II
      Veterano
      # out/05
      · votar


      Pra Si Fumol use a escala de Fu Simol :


      e-----------------------------------------14-2-24-----------
      B--------------------------------13-15-17--------------------
      G-------------------------9-20-3---------------------------
      D-------------------6-1-8---------------------------------
      A------------5-9-11----------------------------------------
      E------6-4-3----------------------------------------------


      adnz
      Veterano
      # out/05
      · votar


      Si Fumol, Fu Simol, Fi Sumol, Su Fimol.

      EduArdanuy II
      Veterano
      # out/05
      · votar


      Si Mufol , Mu Fisol

      Mino
      Veterano
      # out/05
      · votar


      huahuahuahuahuhahuahu
      to aprendendo altas escalas q nao conhecia =P

      22222 oirartnoc oa
      Veterano
      # out/05
      · votar


      Si Fimose

      Deji
      Veterano
      # out/05
      · votar


      dó abimolado é relativo de si fumol

      darkwolf
      Veterano
      # out/05
      · votar


      AHUAHUAH

      Enviar sua resposta para este assunto
              Tablatura   
      Responder tópico na versão original
       

      Tópicos relacionados a Duvida - Como improvisar em Si Fumol?

      303.308 tópicos 7.849.496 posts
      Fórum Cifra Club © 2001-2017 Studio Sol Comunicação Digital